PrimaNota.ru - самый крупный в мире бесплатный архив песенных текстов, аккордов, табулатур и нот


Toadies - Trust Game - таба, видео

Регистрация Запомнить меня
Войти через:  Facebook Google Twitter Vk Yandex Mail.ru

Toadies - Trust Game - таба, видео

Печатать
Просмотров: 63
Уроки эстрадного вокала в Санкт-Петербурге
-------------------------------------------------------------------------------| SONG 
NAME: Trust game by the toadies
-------------------------------------------------------------------------------|
Tabbed by:Val S.
E-mail: codplayer1998@live.com

I noticed there was no tabs for this so i tryed to figure it out here you go enjoy
(Btw Its not perfect)
Tuning:EADGBE (Standard)
R=Let it ring

intro/verse

e|----------------------------------------------------------------------------------|
B|----------------------------------------------------------------------------------|
G|-----------------------3---3------------------------------------------------------|
D|---------------3---3---2---2------------------------------------------------------|
A|---4---4---4---4---4---3---3------------------------------------------------------|
E|---0---0---0---0---0---0---0------------------------------------------------------|
Repeat (x12)^

Pre Chorus (Do you wanna play...)
e|---2---2---2---2----0-R------------------------------------------------------------|
B|---3---3---3---3----1-R------------------------------------------------------------|
G|---2---2---2---2----0-R------------------------------------------------------------|
D|---0---0---0---0----2-R------------------------------------------------------------|
A|--------------------3-R------------------------------------------------------------|
E|-----------------------------------------------------------------------------------|

Pre chorus continued
e|-----------------------------------------------------------------------------------|
B|-----------------------------------------------------------------------------------|
G|---3-3-3-3-3-3-3--0----------------------------------------------------------------|
D|---2-2-2-2-2-2-2--0----------------------------------------------------------------|
A|---3-3-3-3-3-3-3--0----------------------------------------------------------------|
E|-----------------------------------------------------------------------------------|
Then go back to verse


Hope I could help this is my first tab ive written so sorry if it sucks.

************************************
Добавлено: 05.08.2015
Вам также может быть интересно:
Другие материалы по этой песне:
  • Аккорды и текст

Страница создана 05.08.2015
http://primanota.ru/toadies/trust-game-chords.htm
Привет, Гость.
Предлагаем пройти революционный курс по гитаре.
Подарок от PrimaNota.Ru, забирай!