PrimaNota.ru - самый крупный в мире бесплатный архив песенных текстов, аккордов, табулатур и нот


Toadies - Summer Of The Strange - таба, видео

Регистрация Запомнить меня
Войти через:  Facebook Google Twitter Vk Yandex Mail.ru

Toadies - Summer Of The Strange - таба, видео

Печатать
Просмотров: 110
-------------------------------------------------------------------------------
                         SUMMER OF THE STRANGE - The Toadies
-------------------------------------------------------------------------------
Tabbed by: ironmanben
E-mail: bentrooper@gmail.com

Tuning: e B G D A E (G D A D - Drop D - for bass only)

guitar 1: Clark Vogeler - lead (right channel)
guitar 2: Vaden Todd Lewis -rhythm (left channel)
bass: Doni Blair 

bass riff:
G|-----------------|
D|-0-4---0---3-0---| x8
A|-----------------|
D|-----------------|

verse:
guitar 1
e|---------------------------------|---------------------------------|
B|---------------------------------|-4-4/7-7-1010--104-4/7-7-1010--10|
G|---------------------------------|-4-4/7-7-1010--104-4/7-7-1010--10|
D|---------------------------------|-4-4/7-7-1010--104-4/7-7-1010--10| 
A|---------------------------------|-2-2/5-5-8-8---8-2-2/5-5-8-8---8-|
E|---------------------------------|-2-2/5-5-8-8---8-2-2/5-5-8-8---8-|
-| guitar 2                        |                                 |           
e|---------------------------------|---------------------------------|
B|---------------------------------|---------------------------------|
G|---------------------------------|---------------------------------|
D|---------------------------------|---------------------------------|
A|---------------------------------|---------------------------------|
E|---------------------------------|---------------------------------|
-| bass                            |                                 |
G|---------------------------------|---------------------------------|
D|-0-4---0---3-0---0-4---0---3-0---|-0-4---0---3-0---0-4---0---3-0---|
A|---------------------------------|---------------------------------|
D|---------------------------------|---------------------------------|


e|---------------------------------|---------------------------------|
B|---------------------------------|-4-4/7-7-1010--104-4/7-7-1010--10|
G|---------------------------------|-4-4/7-7-1010--104-4/7-7-1010--10|
D|---------------------------------|-4-4/7-7-1010--104-4/7-7-1010--10| 
A|---------------------------------|-2-2/5-5-8-8---8-2-2/5-5-8-8---8-|
E|---------------------------------|-2-2/5-5-8-8---8-2-2/5-5-8-8---8-|
-|                                 |                                 |           
e|---------------------------------|---------------------------------|
B|---------------------------------|---------------------------------|
G|---------------------------------|-------------------------------x-|
D|---------------------------------|-----------------------------x-x-|
A|---------------------------------|-----------------------------x-x-|
E|---------------------------------|-----------------------------x---|
-|                                 |                                 |
G|---------------------------------|---------------------------------|
D|-0-4---0---3-0---0-4---0---3-0---|-0-4---0---3-0---0-4---0---3-0---|
A|---------------------------------|---------------------------------|
D|---------------------------------|---------------------------------|


e|---------------------------------|
B|-4-4/7-7-1010--104-4/7-7-1010--10|
G|-4-4/7-7-1010--104-4/7-7-1010--10| x8
D|-4-4/7-7-1010--104-4/7-7-1010--10|
A|-2-2/5-5-8-8---8-2-2/5-5-8-8---8-|
E|-2-2/5-5-8-8---8-2-2/5-5-8-8---8-|
-|                                 |
e|---------------------------------|
B|---------------------------------|
G|-4-4/7-7-1010--104-4/7-7-1010--10|
D|-4-4/7-7-1010--104-4/7-7-1010--10|
A|-2-2/5-5-8-8---8-2-2/5-5-8-8---8-|
E|-2-2/5-5-8-8---8-2-2/5-5-8-8---8-|
-|                                 |
G|---------------------------------|
D|-0-4---0---3-0---0-4---0---3-0---|
A|---------------------------------|
D|---------------------------------|


both guitars:
e|---------------------------------|---------------------------------|
B|---------------------------------|---------------------------------|
G|---------------------------------|---------------------------------|
D|-3-3-3-3-3---3-3-3-3-3---3-3-3---|-3-3-3-3-3---3-3-3---------------|
A|-3-3-3-3-3---3-3-3-3-3---3-3-3---|-3-3-3-3-3---3-3-3---------------|
E|-1-1-1-1-1---1-1-1-1-1---1-1-1---|-1-1-1-1-1---1-1-1---------------|
   x x x x x   x x x x x   x x x     x x x x x   x x x

guitar 1
e|---------------------------------|-------------------------------------|
B|---------------------------------|----------------12--10-12-10-12br-10-|
G|--/11~~~-------------------------|--10~--------------------------------|
D|---------------------------------|-------------------------------------|
A|---------------------------------|-------------------------------------|
E|---------------------------------|-------------------------------------|
-| guitar 2                        |                                 |
e|---------------------------------|---------------------------------|
B|---------------------------------|---------------------------------|
G|---------------------------------|---------------------------------|
D|--/7-----------------------------|--\5--(allow to feed back)-------|
A|---------------------------------|---------------------------------|
E|---------------------------------|---------------------------------|
-| bass                            |                                 |
G|---------------------------------|---------------------------------|
D|-0-4---0---3-0---0-4---0---3-0---|-0-4---0---3-0---0-4---0---3-0---|
A|---------------------------------|---------------------------------|
D|---------------------------------|---------------------------------|


e|---------------------------------|---------------------------------|
B|---------------------------------|---------------------------------|
G|--/11--~---~---~---~---~---~-~---|--10~(divebomb)--------------x-x-|
D|---------------------------------|----------------------------(5)(5)
A|---------------------------------|---------------------------------|
E|---------------------------------|---------------1/////////--------|
-|             (slide roughly an octave up the neck)^^^              |
e|---------------------------------|---------------------------------|
B|---------------------------------|---------------------------------|
G|---------------------------------|---------------------------------|
D|--/7-----------------------------|---------------------------------|
A|---------------------------------|---8---(allow to feed back)------|
E|---------------------------------|---------------------------------|
-|                                 |                                 |
G|---------------------------------|---------------------------------|
D|-0-4---0---3-0---0-4---0---3-0---|-0-4---0---3-0---0-4---0---3-0---|
A|---------------------------------|---------------------------------|
D|---------------------------------|---------------------------------|

This next part is actually a bit more arranged than I thought at first.  
When they do it live Clark does all the slides.
On the recording it appears they alternate. 

e|---------------------------------|---------------------------------|
B|---------------------------------|---------------------------------|
G|-x-------------------------------|---------------------------------|
D|(5)1//-----------------------xxx-|-x-x---x---------------------xxx-| 
A|---1//-x---------------------xxx-|-x-x---x---------x-----------xxx-|
E|---1//-x-------------------------|-----------------x-----------xxx-|
-|                             ^Mute around 10th fret                |           
e|---------------------------------|---------------------------------|
B|---------------------------------|---------x-----------------------|
G|---------------------------------|----------x----------------------|
D|-------12\\----------------------|-----------x-----x-x---------xxx-|
A|-------12\\----------------------|------------x----x-x---------xxx-|
E|-------12\\----------------------|-------------x---------------xxx-|
-|                                 |                                 |
G|---------------------------------|---------------------------------|
D|-0-4---0---3-0---0-4---0---3-0---|-0-4---0---3-0---0-4---0---3-0---|
A|---------------------------------|---------------------------------|
D|---------------------------------|---------------------------------|


e|---------------------------------|-----------------------------------|
B|---------------------------------|-----------------------------------|
G|---------------------------------|-----------------------------x-x-x-|
D|-x---------------------------xxx-|-x---------------------------x-x-x-| 
A|-x-----------x-x-------------xxx-|-x---------x-x---------------x-x-x-|
E|-x-1//-10\\--x-x-------------xxx-|-x-1//-----x-x-1//-----------------|
-|                                 |                                   |           
e|---------------------------------|-----------------------------------|
B|---------------------------------|-----------------------------------|
G|---------------------------------|-----------------------------------|
D|-x---------------------------xxx-|-x---------x-x-------------x-x-x-x-|
A|-x-----------x-x-------x-----xxx-|-x---------x-x-------------x-x-x-x-|
E|-x-1//-10\\--x-x-------x-----xxx-|-x-----10\\--------10\\----x-x-x-x-|
-|                                 |                                 |
G|---------------------------------|---------------------------------|
D|-0-4---0---3-0---0-4---0---3-0---|-0-4---0---3-0---0-4---0---3-0---|
A|---------------------------------|---------------------------------|
D|---------------------------------|---------------------------------|


e|---------------------------------|
B|-4-4/7-7-1010--104-4/7-7-1010--10|
G|-4-4/7-7-1010--104-4/7-7-1010--10| x8
D|-4-4/7-7-1010--104-4/7-7-1010--10|
A|-2-2/5-5-8-8---8-2-2/5-5-8-8---8-|
E|-2-2/5-5-8-8---8-2-2/5-5-8-8---8-|
-|                                 |
e|---------------------------------|
B|---------------------------------|
G|-4-4/7-7-1010--104-4/7-7-1010--10|
D|-4-4/7-7-1010--104-4/7-7-1010--10|
A|-2-2/5-5-8-8---8-2-2/5-5-8-8---8-|
E|-2-2/5-5-8-8---8-2-2/5-5-8-8---8-|
-|                                 |
G|---------------------------------|
D|---------------------------------|
A|---------------------------------|
D|-0-4---0---3-0---0-4---0---3-0---|

both guitars:
e|---------------------------------|---------------------------------|
B|---------------------------------|---------------------------------|
G|---------------------------------|---------------------------------|
D|-3-3-3-3-3---3-3-3-3-3---3-3-3---|-3-3-3-3-3---3-3-3---------------|
A|-3-3-3-3-3---3-3-3-3-3---3-3-3---|-3-3-3-3-3---3-3-3---------------|
E|-1-1-1-1-1---1-1-1-1-1---1-1-1---|-1-1-1-1-1---1-1-1---------------|
   x x x x x   x x x x x   x x x     x x x x x   x x x

guitar 1
e|-----------------|-----------------|-----------------|-----------------|
B|-----------------|-----------------|-----------------|-----------------|
G|-----------------|-----------------|-----------------|-----------------|
D|-----------------|-----------------|-----------------|-----------------|
A|-----0-3-5---5---|-----0-3-5---5---|-----0-3-5-3-5---|-----0-3-5---5---|
E|-1-3-------------|-1-3-------------|-1-3-------------|-1-3-------------|
-| guitar 2        |                 |                 |                 |
e|-----------------|-----------------|-----------------|-----------------|
B|-----------------|-----------------|-----------------|-----------------|
G|-----------------|-----------------|-----------------|-----------------|
D|-----7-1012--12--|-----7-1012--12--|-----7-10121012--|-----7-1012--12--|
A|-8-10------------|-8-10------------|-8-10------------|-8-10------------|
E|-----------------|-----------------|-----------------|-----------------|

e|-----------------|-----------------|-----------------|-----------------|
B|-----------------|-----------------|-----------------|-----------------|
G|-----------------|-----------------|-----------------|-----------------|
D|-----------------|-----------------|-----------------|-----------------|
A|-----0-3-5---5---|-----0-3-5---5---|-----0-3-5-3-5---|-----0-3-5---5---|
E|-1-3-------------|-1-3-------------|-1-3-------------|-1-3-------------|
-|                 |                 |                 |                 |
e|-----------------|-----------------|-----------------|-----------------|
B|-----------------|-----------------|-----------------|-----------------|
G|-----------------|-----------------|-----10----------|-----------------|
D|-----7-1012--12--|-----7-1012--12--|-------10121012--|-----7-1012--12--|
A|-8-10------------|-8-10------------|-8-10------------|-8-10------------|
E|-----------------|-----------------|-----------------|-----------------|



e|---------------------------------|---------------------------------|
B|---------------------------------|---------------------------------|
G|---------------------------------|-(7)-(vibrato up, not down)------|
D|---------------------------------|---------------------------------|
A|---9~~~~---------------------~~~~|---------------------------------|
E|---------------------------------|---------------------------------|
-|                                 |                                 |
e|---------------------------------|---------------------------------|
B|---------------------------------|---------------------------------|
G|---------------------------------|---4-----------------------------|
D|--/7-----------------------------|---5-----------------------------|
A|---------------------------------|---------------------------------|
E|---------------------------------|---------------6^(dive bombs)----|
-|                                 |                                 |
G|---------------------------------|---------------------------------|
D|-0-4---0---3-0---0-4---0---3-0---|-0-4---0---3-0---0-4---0---3-0---|
A|---------------------------------|---------------------------------|
D|---------------------------------|---------------------------------|


e|---------------------------------|---------------------------------|
B|---------------------------------|---------------------------------|
G|---------------------------------|-------------------7-------------|
D|---------------------------------|------------(slowly raise bar to pitch)
A|-8^(9)-8^--8^--8^~~~~~~----------|-8~(divebomb)--------------------|
E|---------------------------------|---------------------------------|
-|             (slide roughly an octave up the neck)^^^              |
e|---------------------------------|---------------------------------|
B|---------------------------------|---------------------------------|
G|---10--(hold out)----------------|-~~~~----------------------------|
D|---------------------------------|---------------------------------|
A|---------------------------------|---------------------x-x-x-x-x-x-|
E|---------------------------------|---------------------x-x-x-x-x-x-|
-|                                 |                                 |
G|---------------------------------|---------------------------------|
D|-0-4---0---3-0-3-0-4---0---3-0---|-0-4---0---3-0---0-4---0---3-0---|
A|---------------------------------|---------------------------------|
D|---------------------------------|---------------------------------|


e|---------------------------------|---------------------------------|
B|---------------------------------|---------------------------------|
G|---------------------------------|---------------------------------|
D|-(repeatedly raise vibrato while holding D string, 14th fret)------|
A|---------------------------------|----------------------------12\\\|
E|---------------------------------|---------------------------------|
-|                                 |                                 |
e|---------------------------------|---3-----------------------------|
B|---3-----------------------------|---3-----------------------------|
G|---2-----------------------------|-0-0-----------------------------|
D|-0-0-----------------------x-x-x-|-0-0-----------x-x-x-1//-/-/--/--|
A|-0-0-----------------------x-x-x-|-0-------------x-x-x-1//-/-/--/--|
E|---------------------------x-x-x-|---------------x-x-x-1//-/-/--/--|
-|                                 |                                 |
G|---------------------------------|---------------------------------|
D|-0-4---0---3-0---0-4---0---3-0---|-0-4---0---3-0---0-4---0---3-0---|
A|---------------------------------|---------------------------------|
D|---------------------------------|---------------------------------|

bass only:
G|-----------------|        
D|-----------------| x7     
A|-----------------|       
D|-0-4---0---3-0---|        


guitar 1
e|-------------------|
B|-------------------|
G|-------------------|
D|-------------------|
A|-------------------|
E|-1/17\\\\(divebomb)|
-| bass              |
G|-------------------|
D|-------------------|
A|-------------------|
D|-0-4---------------|

guitar 1
e|---------------------------------|---------------------------------|
B|---------------------------------|---------------------------------|
G|---------------------------------|---------------------------------|
D|-3-3-3-3-3---3-3-3-3-3---3-3-3---|-1010101010--101010--------------|
A|-3-3-3-3-3---3-3-3-3-3---3-3-3---|-x-x-x-x-x---x-x-x---------------|
E|-1-1-1-1-1---1-1-1-1-1---1-1-1---|-8-8-8-8-8---8-8-8---------------|
-| guitar                          |                                 |
e|---------------------------------|---------------------------------|
B|---------------------------------|---------------------------------|
G|---------------------------------|-1010101010--101010--------------|
D|-10101010100-1010101010--101010--|-1010101010--101010--------------|
A|-8-8-8-8-8---8-8-8-8-8---8-8-8---|-8-8-8-8-8---8-8-8---------------|
E|-8-8-8-8-8---8-8-8-8-8---8-8-8---|-8-8-8-8-8---8-8-8---------------|
There might also be a third track of the low F5 chord here but I'm not sure.

guitar 1
e|-----------------|-----------------|-----------------|-----------------|
B|-----------------|-----------------|-----------------|-----------------|
G|-----------------|-----------------|-----------------|-----------------|
D|-----------------|-----------------|-------1012------|-----------------|
A|-----0-3-5---5---|-----0-3-5---5---|-----------------|-----0-3-5---5---|
E|-1-3-------------|-1-3-------------|-1-3---------17\\|-1-3-------------|
-| guitar 2        |                 |                 |                 |
e|-----------------|-----------------|-----------------|-----------------|
B|-----------------|-----------------|-----------------|-----------------|
G|-----------------|-----------------|-----------------|-----------------|
D|-----------------|-----------------|-----------------|-----------------|
A|-----0-3-5---5---|-----0-3-5---5---|-----0-3-5-3-5---|-----0-3-5---5---|
E|-1-3-------------|-1-3-------------|-1-3-------------|-1-3-------------|

e|-----------------|-----------------|-----------------|-----------------|
B|-----------------|-----------------|-----------------|-----------------|
G|-----------------|-----------------|-----------------|-----------------|
D|-----------------|-----------------|-----------------|-----------------|
A|-----0-3-5---5---|-----0-3-5---5---|-----0-3-5-------|-----0-3-5---5---|
E|-1-3-------------|-1-3-------------|-1-3---------17\\|-1-3-------------|
-|                 |                 |                 |                 |
e|-----------------|-----------------|-----------------|-----------------|
B|-----------------|-----------------|-----------------|-----------------|
G|-----------------|-----------------|-----10----------|-----------------|
D|-----7-1012--12--|-----7-1012--12--|-------10121012--|-----7-1012--12--|
A|-8-10------------|-8-10------------|-8-10------------|-8-10------------|
E|-----------------|-----------------|-----------------|-----------------|


e|---------------------------------|---------------------------------|
B|------------------(7)-~~~~-------|---------------------------------|
G|---------------------------------|---(7)-~~~~----------------------|  x2 
D|---------------------------------|---------------------------------|
A|-----------------------------~~~~|------------------7^(8)7^--7^--7^|
E|---------------------------------|---------------------------------|
-|                                 |                                 |
e|---------------------------------|---------------------------------|
B|---------------------------------|---------------------------------|
G|---------------------------------|---------------------------------|
D|---------------------------------|---------------------------------|
A|-8/9~~~~-------------------------|---8------------(12)~~~----------|
E|---------------------------------|---------------------------------|
-|                                 |                                 |
G|---------------------------------|---------------------------------|
D|-0-4---0---3-0---0-4---0---3-0---|-0-4---0---3-0---0-4---0---3-0---|
A|---------------------------------|---------------------------------|
D|---------------------------------|---------------------------------|


(Fade out)


************************************

| /   slide up
| \   slide down
| h   hammer-on
| p   pull-off
| ~   vibrato
| +   harmonic
| x   Mute note
| ^   Bend
| pb  Pre-bend
| br  Bend release
| pbr Pre-bend release
| brb Bend release bend

************************************
Добавлено: 04.10.2015
Другие материалы по этой песне:
  • Аккорды и текст

Страница создана 04.10.2015
http://primanota.ru/toadies/summer-of-strange-chords.htm
Привет, Гость.
Предлагаем пройти революционный курс по гитаре.
Подарок от PrimaNota.Ru, забирай!