PrimaNota.ru - самый крупный в мире бесплатный архив песенных текстов, аккордов, табулатур и нот


Toadies - Rattler Revival - таба, видео

Регистрация Запомнить меня
Войти через:  Facebook Google Twitter Vk Yandex Mail.ru

Toadies - Rattler Revival - таба, видео

Печатать
Просмотров: 63
The first song off the toadies new album Play.Rock.Music, i love the toadies but can't 
find enough tabs so i tried figuring this out myself

e---------------------------------|
b---------------------------------|
g-----2-2---2-2-2---2-2-2---2-2-2-|
d-----2-2---2-2-2---2-2-2---2-2-2-|
a-----0-0---0-0-0---0-0-0---0-3-3-|
E---------------------------------|
                                     pretty simple riff listen to the song
                                     for timing.
e---------------------------------|
b---------------------------------|
g---2-2-2---2-2-2---2-2-2---2-2-2-|
d---2-2-2---2-2-2---2-2-2---2-2-2-|
a---0-0-0---0-0-0---0-0-0---0-x-x-|
E-----------------------------3-3-|

this is the main part of rhythm for the whole song maybe a few little changes here and there
and the most i could figure out of the fill/soloish part is

e----------------------------------|
b---8b10-10r8----8-7-5-----8b10----|
g----------------------8-7---------|  x4 the last time he leaves off the bend
d----------------------------------|     and screws around in the scale a lil
a----------------------------------|
E----------------------------------|

This gets changed a little when he does it the second time and i believe it goes like

e----------------------------------------------------------|
b---8b10-10r8----8-7-5-----8b10----8b10-10r8-8b10-b10-10r8-|
g----------------------8-7---------------------------------|
d----------------------------------------------------------|
a----------------------------------------------------------|
E----------------------------------------------------------|

e-------------------------8b10-10r8--8b10-b10-10r8-5h8p5---|
b---8b10-10r8---8-7-5--------------------------------------|
g---------------------8-7----------------------------------|
d----------------------------------------------------------|
a----------------------------------------------------------|
E----------------------------------------------------------|

if anyone wants to request some toadies i would love to try and figure more out email me 
at tyl3rwalk3r@yahoo.com
Добавлено: 24.09.2013
Другие материалы по этой песне:
  • Аккорды и текст

Страница создана 24.09.2013
http://primanota.ru/toadies/rattler-revival-chords.htm
Привет, Гость.
Предлагаем пройти революционный курс по гитаре.
Подарок от PrimaNota.Ru, забирай!