PrimaNota.ru - самый крупный в мире бесплатный архив песенных текстов, аккордов, табулатур и нот


Toad The Wet Sprocket - Windmills - аккорды и текст, таба, видео

Регистрация Запомнить меня
Войти через:  Facebook Google Twitter Vk Yandex Mail.ru

Toad The Wet Sprocket - Windmills - аккорды и текст, таба, видео

Печатать
Просмотров: 177
Уроки эстрадного вокала в Санкт-Петербурге
Авторы музыки: Toad the Wet Sprocket, Glen Phillips
Авторы текста: Glen Phillips
Windmills
Toad The Wet Sprocket
Windmills
---------
transcribed by: Walter Tien (walter@nb.net)
                Miggy Limgenco (casa305@usinc.net)


INTRO
|-0----------------------------|
|-0----------------------------|
|-9---------------------------*|
|-9---------------------------*|
|-7----------------------------|
|-0----------------------------|
|                              |
|-0------0------0------0-------|
|------------------------------|
|---1-2----1-2----1-2----1-2--*|
|-----------------------------*|
|------------------------------|
|------------------------------|

|-0----------------------------|-0----------------------------|
|-0----------------------------|-0----------------------------|
|-9----------------------------|-9---------------------------*|
|-9----------------------------|-9---------------------------*|
|-7----------------------------|-7----------------------------|
|-0----------------------------|-0----------------------------|
|                              |                              |
|-0------0------0------0-------|-0------0------0------2p0-----|
|------------------------------|--------------------------0---|
|---1-2----1-2----1-2----1-2---|---1-2----1-2----1-2---------*|
|------------------------------|-----------------------------*|
|------------------------------|------------------------------|
|------------------------------|------------------------------|


VERSE
|-0----------------------------|-0----------------------------|
|-0----------------------------|-0----------------------------|
|-9----------------------------|-9---------------------------*|
|-9----------------------------|-9---------------------------*|
|-7----------------------------|-7----------------------------|
|-0----------------------------|-0----------------------------|
|                              |                              |
|-0------0------0------0-------|-0------0------0------2p0-----|
|------------------------------|--------------------------0---|
|---1-2----1-2----1-2----1-2---|---1-2----1-2----1-2---------*|
|------------------------------|-----------------------------*|
|------------------------------|------------------------------|
|------------------------------|------------------------------|


CHORUS
A           E                  B
    There's something that you won't show

A    E                 B
    Waiting where the light goes

A         E          B
    Maybe anyway the wind blows

A        C#m        B       A - E
    It's all worth waiting for...


BRIDGE
C#m          Ab         F#m         A
Pull on the borders to lighten the load

C#m           B          C           G - F - E
Tell all the passengers we're going home


 
Добавлено: 31.05.2012
Другие материалы по этой песне:

Страница создана 12.03.2012
http://primanota.ru/toad-the-wet-sprocket/windmills-chords.htm
Привет, Гость.
Предлагаем пройти революционный курс по гитаре.
Подарок от PrimaNota.Ru, забирай!