PrimaNota.ru - самый крупный в мире бесплатный архив песенных текстов, аккордов, табулатур и нот


Toad The Wet Sprocket - She Cried - аккорды и текст, таба, видео

Регистрация Запомнить меня
Войти через:  Facebook Google Twitter Vk Yandex Mail.ru

Toad The Wet Sprocket - She Cried - аккорды и текст, таба, видео

Печатать
Просмотров: 141
She Cried
Toad The Wet Sprocket
		   Return-Path:  RHOULETT@DEPAUW.EDU>
X-Vms-To: IN%"guitar@nevada.edu"

She Cried
by Toad the Wet Sprocket
from the _Pale_ album

contributed by Ryan Houlette
 rhoulett@depauw.edu>



   Fsus2                       Em7?         A   Bdim Cdim
|------------------------------------------------------|------------------------
|------1--1--------1--------1------3--3------2---3--5--|-----1--1--------1------
|------0--0--------0--------0------3--3------2---4--6--|-----0--0--------0------
|---3--------3--3--------3------2--------2-------------|--3--------3--3---------
|------------------------------------------------------|------------------------
|------------------------------------------------------|------------------------


                         "solitaire                     such a fateful game
--------------------------|-----------------------------------------------------
------1-----3--3-----2\---|-----------1--1--------1---------1-----3--3-----2----
------0-----3--3-----\----|-----------0--0--------0---------0-----3--3-----2----
---3-----2--------2-------|--------3--------3--3---------3-----2--------2-------
--------------------------|-----------------------------------------------------
--------------------------|-----------------------------------------------------


         she turns her cards      writes her name on the napkin now
------|--------------------------------------------------------|--5-------------
3--5--|---------1--1--------1---------1-----3--3------2--3--5--|-----5----------
4--6--|---------0--0--------0---------0-----3--3------2--4--6--|----------------
------|------3--------3--3---------3-----2---------2-----------|----------------
------|--------------------------------------------------------|----------------
------|--------------------------------------------------------|----------------


turns another card   she dreams about the house and romance he promised
-5---------------------------|--------------------------------------------------
----5-----3--3------2--3--5--|---------1--1--------1----------------------------
----------3--3------2--4--6--|---------0--0--------0----------------------------
-------3---------3-----------|-----3---------3--3-------------------------------
-----------------------------|--------------------------------------------------
-----------------------------|--------------------------------------------------


but won't deliver her                          she waits alone
-8---8---8---8---1-----------------0--------|------------------0----------------
-10--10--10--10--0-----------0--------0-----|------------1----------------------
-9---9---9---9---0--------0-----0--------0--|---------2-----2-------------------
-10--10--10--10--0-----0--------------------|------2----------------------------
-----------------2--------------------------|-----------------------------------
-----------------3--3-----------------------|---1-------------------------------


with dried-out hopes           dormant phone
----------------------------0---------|-----------------0-----0-----------------
-1-----1--------------0---------0-----|-----------1--------1--------------------
----2-----2--------0-----0---------0--|--------2-----2--------------------------
----------------0---------------------|-----2-----------------------------------
--------------------------------------|-----------------------------------------
-------------3------------------------|--1--------------------------------------


she waits for years            fantasies melt              new ones appear
-------------------0------------|-----------------0-----------------------------
-1-----------0--------0-----0---|-----------1--------1------------------0-------
----------0-----0--------0------|--------2-----2--------2---------0--------0----
-------0------------------------|-----2------------------------------0----------
--------------------------------|------------------------------2----------------
----3---------------------------|--1------------------------3-------------------


      they won't help
0---------------------|--------------------------------------------------|------
---0------------------|-----1--1--------1--------1-----3--3-----2--3--5--|------
----------------------|-----0--0--------0--------0-----3--3-----2--4--6--|------
----------------------|--3--------3--3--------3-----2--------2-----------|------
----------------------|--------------------------------------------------|------
----------------------|--------------------------------------------------|------


                                           and again
--------------------------------------------|-----------------------------------
---1--1--------1--------1-----3--3-----2\---|-----------1--1--------1-----------
---0--0--------0--------0-----3--3-----\----|-----------0--0--------0-----------
3--------3--3--------3-----2--------2-------|--------3--------3--3--------3-----
--------------------------------------------|-----------------------------------
--------------------------------------------|-----------------------------------


      she catches him       eye pulls away        light too dim
-------------------------|------------------------------------------------------
1------3--3-----2--3--5--|------1--1--------1---------1-----3--3----------------
0------3--3-----2--4--6--|------0--0--------0---------0-----3--3----------------
---2---------2-----------|---3--------3--3---------3-----2----------------------
-------------------------|------------------------------------------------------
-------------------------|------------------------------------------------------


she calls his name          runs arounds   but he was faster
-------------|--5--5--5-------------------------|-------------------------------
----2--3--5--|--5-----5------3--3------2--3--5--|--------1--1-----1/3\1---------
----2--4--6--|---------------3--3------2--4--6--|--------0--0-------------------
-2-----------|-----------3---------3------------|-----3--------3----------------
-------------|----------------------------------|-------------------------------
-------------|----------------------------------|-------------------------------


all alone in a bad part of town                           she waits again
-------0--5-----------5-----------------0-----------|--r------------------0-----
-------0--5-----5--------5--------0--------0-----0--|--e------------1-----------
-------0--5--5-----5-----------0-----0--------0-----|--s---------2-----2--------
-------2--7-----------------------------------------|--t------2-----------------
-------2--8-----------------------------------------|---------------------------
-------0--------------------3-----------------------|------1--------------------


with dried-out hopes           things she made for him
----------------------------0---------|-----------------0--------0--------------
-1-----1--------------0---------0-----|-----------1--------1--------------------
----2-----2--------0-----0---------0--|--------2-----2--------2-----------------
----------------0---------------------|-----2-----------------------------------
--------------------------------------|-----------------------------------------
-------------3------------------------|--1--------------------------------------


a little ride                     a little fun was all
----------------------0------------|-----------------0--------------------------
-1--------------0--------0-----0---|-----------1--------1-----------------------
----2--------0-----0--------0------|--------2-----2--------2--------------------
----------0------------------------|-----2--------------------------------------
-----------------------------------|--------------------------------------------
-------3---------------------------|--1-----------------------------------------


he held her tight   got tired   then let go
--------------------0--------|--------------------------------------------------
-------------0---------0-----|--------------------------------------------------
-------0---------0-----------|--------------------------------------------------
----------0------------------|--------------------------------------------------
----2------------------------|--------------------------------------------------
-3---------------------------|--------------------------------------------------


G6                F7M  
oh the strain on her heart
G6                   F7M  
she believed a lying blackheart
G6               F7M  
painted with promises
Am
then he left her on the floor
G
with only the mirror to curse
Am             G
should have known better
Am                G
should have known better
Am                G
should have known    oh   oh
F
and how she cried  how she cried
G
how she cried how she cried

etc.

(repeat  F G  until end)     
Добавлено: 11.06.2013
Другие материалы по этой песне:
  • Аккорды и текст

Страница создана 15.03.2012
http://primanota.ru/toad-the-wet-sprocket/she-cried-chords.htm
Привет, Гость.
Предлагаем пройти революционный курс по гитаре.
Подарок от PrimaNota.Ru, забирай!