PrimaNota.ru - самый крупный в мире бесплатный архив песенных текстов, аккордов, табулатур и нот


Toad The Wet Sprocket - Bequtz - таба

Регистрация Запомнить меня
Войти через:  Facebook Google Twitter Vk Yandex Mail.ru

Toad The Wet Sprocket - Bequtz - таба

Печатать
Просмотров: 96
----------------------------------------------------------------------------
                             BeQutz - Toad the Wet Sprocket
                            From: Dulcinea
----------------------------------------------------------------------------

Tabbed by: bcaviator

Tuning: Standard

Ok, I'll say right up front - this isn't 100% right -
there is some stuff going on that I didn't quite get,
but I was in a hurry... in general, it's fairly close.
If you can follow the song and you can follow the changes,
you'll pick up the rhythm and might even come up with a
better way to play it... if so, feel free to comment or improve on it)

        | /  slide up
        | \  slide down
        | h  hammer-on
        | p  pull-off
        | ~  vibrato
        | +  harmonic
        | x  Mute note
        | b  bend (1/2 or full)

(also note: |----| does not equal a musical bar in this TAB,
it only represents a break between passages to make it easier to piece together...)



        D                Cadd9         D           Cadd9

     Four Times... He came by   and not look
|--------------------------------------------------------|
|-------3------------------3-----------3-------------3---|
|-------2------------------0-----------2-------------0---|
|-----0-0------------------2---------0-0-------------2---|
|----------------------2(h)3---------------------2(h)3---|
|--------------------------------------------------------|

        D                Cadd9         D           Cadd9

  Talked about the reservoir,  His thumbs were hooked in his carpenter's belt
|----------------------------------------------------------------------------------|
|-------3------------------3-----------3-------------3-----------3-------------3---|
|-------2------------------0-----------2-------------0-----------2-------------0---|
|-----0-0------------------2---------0-0-------------2---------0-0-------------2---|
|----------------------2(h)3---------------------2(h)3---------------------2(h)3---|
|----------------------------------------------------------------------------------|

        D                Cadd9        D           Cadd9                 G/B

   And he squinted in the sun... He smiled wide many times,I think I smiled back once.
|------------------------------------------------------------------------3--------------||
|---------------3---------3-----------3-------------3--------------------3--------------||
|---------------2---------0-----------2-------------0--------------------0--------------||
|---------------0---------2---------0-0-------------2--------------------0--------------||
|-------------------------3---------------------2(h)3--------------------2--------------||
|----------------------------------------------------------------------3-3--------------||


Bridge / Chorus

  A            Am7      (arp  Fm      arp C)              D                 E

   And it's frightening,  oooh  I didn't expect that from you,  It's Blinding
|---------------0-----------------------------------------------------------0---|
|-3-------------1-----------------------------------------3-----------------0---|
|-3-------------0-------------------0----------0----------2-----------------1---|
|-3-------------2----------------2----------2-------------0-----------------2---|
|-0-------------0--------2-/-4-----------3----------------------------------2---|
|---------------------------------------------------------------------------0---|

       (arp Fm        arp C)         (arp D)          (arp Cadd9)       G/B      D  Cadd9

    Serious,  are you seriously?     I  am   feeling,  really  stupid   now
|----------------------------------|-------------------------------------3---|---2-3-0--------||
|----------------------------------|-------3--------3--------3-----------3---|---3---3--3-----||
|---------------0----------0-------|----2--------2--------2--------------0---|---2---0-----0--||
|------------2----------2----------|-0-----------------------------------0---|---0---2--------||
|-----2-/-4-----------3------------|----------4--------3-----------------2---|-------3--------||
|----------------------------------|-------------------------------------3---|----------------||


Second Verse


        D                Cadd9         D           Cadd9

   Last Time,      On the fly       work it off and off (?)
|--------------------------------------------------------|
|-------3------------------3-----------3-------------3---|
|-------2------------------0-----------2-------------0---|
|-----0-0------------------2---------0-0-------------2---|
|----------------------2(h)3---------------------2(h)3---|
|--------------------------------------------------------|

            D                Cadd9            G

   Sanding down the ceilng   so it ends up in the rug...
|---------------------------------------------x----------|
|-----------3------------------3--------------3----------|
|-----------2------------------0--------------0----------|
|---------0-0------------------2--------------0----------|
|--------------------------2(h)3--------------x----------|
|---------------------------------------------3----------|


Fill  let ring..
|--------------------------------------------------------|
|------------------------------------3-5-3---------------|
|-----7-------------4-5-4---2-4-2------------------------|
|-------------------------5------------------------------|
|--------------------------------------------------------|
|--------------------------------------------------------|


        D                Cadd9         D           Cadd9

   We were waiting in the bedroom,  til he finished up
|-----------------------------------------------------------------|
|-------------3------------------3-----------3-------------3------|
|-------------2------------------0-----------2-------------0------|
|-----------0-0------------------2---------0-0-------------2------|
|----------------------------2(h)3---------------------2(h)3------|
|-----------------------------------------------------------------|

            D                Cadd9            G

   One short hi  and no good bye  she said she'll let him (?)
|---------------------------------------------x-------------------|
|-----------3------------------3--------------3-------------------|
|-----------2------------------0--------------0-------------------|
|---------0-0------------------2--------------0-------------------|
|--------------------------2(h)3--------------x-------------------|
|---------------------------------------------3-------------------|

Fill  let ring..          1/2 step bend, slide
|--------------------------------------------------------|
|-----3--------------------------------------------------|
|-------------------4-5-4---2-4-4(b5)-2------7-----------|
|-------------------------5------------------------------|
|--------------------------------------------------------|
|--------------------------------------------------------|


Bridge / Chorus

  A            Am7      (arp  Fm      arp C)              D                 E

   And it's frightening,  oooh  I didn't expect that from you,  It's Blinding
|---------------0-----------------------------------------------------------0---|
|-3-------------1-----------------------------------------3-----------------0---|
|-3-------------0-------------------0----------0----------2-----------------1---|
|-3-------------2----------------2----------2-------------0-----------------2---|
|-0-------------0--------2-/-4-----------3----------------------------------2---|
|---------------------------------------------------------------------------0---|

       (arp Fm        arp C)         (arp D)          (arp Cadd9)       G/B      D  Cadd9

    Serious,  are you seriously?     I  am   feeling,  really  stupid   now
|----------------------------------|-------------------------------------3---|---2-3-0--------|
|----------------------------------|-------3--------3--------3-----------3---|---3---3--3-----|
|---------------0----------0-------|----2--------2--------2--------------0---|---2---0-----0--|
|------------2----------2----------|-0-----------------------------------0---|---0---2--------|
|-----2-/-4-----------3------------|----------4--------3-----------------2---|-------3--------|
|----------------------------------|-------------------------------------3---|----------------|


          G/B      D  Cadd9                 Em       D        A

  Stupid Now!                        Stupid Nooow
|----------3---|---2-3-0-------3--|---------0--------2----3--------||
|----------3---|---3---3--3-------|---------0--------3--------2----||
|----------0---|---2---0-----0----|---------0--------2--------2----||
|----------0---|---0---2----------|---------2--------0--------2----||
|----------2---|-------3----------|---------2-----------------0----||
|----------3---|------------------|---------0----------------------||


(Solo, over chords from verse)
   Let ring,   rake                       slide     h-p        h  sl. bend
|----------------7-8-10---------------------------------------------------------------|
|------10-------7---------13--------------7-8-7---------------------------------------|
|------11------7-------------14-----------------7--4-5-4----------5-5-----5-----7-7---|
|------12-----------------------13-/-12------------------5----5-7-----7------7--------|
|-------------------------------------------------------------------------------------|
|-------------------------------------------------------------------------------------|


  rake h      p p
|-----------------------------------------||
|----7-8--7--8-7-5-----8-7-5--5-6-6-5-----||
|---7--------------7---7-7-7--5-------7---||
|--7--------------------------------------||
|-----------------------------------------||
|-----------------------------------------||



Bridge / Chorus

  A            Am7      (arp  Fm      arp C)              D                 E

   And it's frightening,  oooh  I didn't expect that from you,  It's Blinding
|---------------0-----------------------------------------------------------0---|
|-3-------------1-----------------------------------------3-----------------0---|
|-3-------------0-------------------0----------0----------2-----------------1---|
|-3-------------2----------------2----------2-------------0-----------------2---|
|-0-------------0--------2-/-4-----------3----------------------------------2---|
|---------------------------------------------------------------------------0---|

       (arp Fm        arp C)         (arp D)          (arp Cadd9)       G/B      D  Cadd9

    Serious,  are you seriously?     I  am   feeling,  really  stupid   now
|----------------------------------|-------------------------------------3---|---2-3-0--------|
|----------------------------------|-------3--------3--------3-----------3---|---3---3--3-----|
|---------------0----------0-------|----2--------2--------2--------------0---|---2---0-----0--|
|------------2----------2----------|-0-----------------------------------0---|---0---2--------|
|-----2-/-4-----------3------------|----------4--------3-----------------2---|-------3--------|
|----------------------------------|-------------------------------------3---|----------------|



    aaand  howw...  (rake)
|-------------------3-------------||
|------3-------------3------------||
|------0--------------0-----------||
|------2---------------0----------||
|------2----------------2---------||
|------------------------3--------||
Добавлено: 30.10.2013
Другие материалы по этой песне:
  • Аккорды и текст

Страница создана 30.10.2013
http://primanota.ru/toad-the-wet-sprocket/bequtz-chords.htm
Привет, Гость.
Предлагаем пройти революционный курс по гитаре.
Подарок от PrimaNota.Ru, забирай!