PrimaNota.ru - самый крупный в мире бесплатный архив песенных текстов, аккордов, табулатур и нот


T.M.Revolution - Zips - таба, видео

Регистрация Запомнить меня
Войти через:  Facebook Google Twitter Vk Yandex Mail.ru

T.M.Revolution - Zips - таба, видео

Печатать
Просмотров: 61
Tabbed by: maximushyrule
Artist: TM Revolution
song: Zips
tuning: dropped D or C

intro 
|-----------------------------------------|
|-----------------------------------------|
|-----------------------------------------|
|-5-5-5-12-12-12-11-11-11-10-10-10-8-8-3-3|  x4
|-5-5-5-12-12-12-11-11-11-10-10-10-8-8-3-3|
|-5-5-5-12-12-12-11-11-11-10-10-10-8-8-3-3| pm this string




Pre-verse
|------------------|
|------------------|
|------------------|
|-5----------------|
|-5----------------|
|-5-555555555555555|
   pm..............




verse
|---------------------|
|---------------------|
|---------------------|
|-5---------2-----3---|     x6
|-5---------2-----3---|
|-5-555555--2-22--3-33|
    ......    ..    ..




pre chorus
|----------|     |---------|
|----------|     |---------|
|----------| x3  |---------|
|-1----3---|     |-5-------|
|-1----3---|     |-5-------|
|-1-11-3-33|     |-5-555555|
    ..   ..          ......
|----------|     
|----------|     
|----------| x3  
|-7----9---|     
|-7----9---|     
|-7-77-9-99|     
    ..   ..

chorus
|------------------------------------------|
|------------------------------------------|
|------------------------------------------|              \
|-5----------0----------2----------9-------|               \
|-5----------0----------2----------9-------|                \
|-5-555555---0-000000---2-222222---9-999999|                 \
    ......     ......     ......     ......                   | x2
|----------------------------------------------------------| / 
|----------------------------------------------------------|/
|----------------------------------------------------------|
|-2----------9----------10------------------12-------------|
|-2----------9----------10------------------12-------------|           
|-2-222222---9-999999---10-10101010101010---12-121212121212|
    ......     ......      ..............      ............



sorry i don't know the solo

solo backing
|----------|     |---------|
|----------|     |---------|
|----------| x3  |---------|
|-1----3---|     |-5-------|
|-1----3---|     |-5-------|
|-1-11-3-33|     |-5-555555|
    ..   ..          ......
|----------|     
|----------|     
|----------| x3  
|-7----9---|     
|-7----9---|     
|-7-77-9-99|     
    ..   ..


end with
|------------------|
|------------------|
|------------------|   x8
|-5----------------|
|-5----------------|
|-5-555555555555555|
    ...............
Добавлено: 24.02.2016
Другие материалы по этой песне:
  • Аккорды и текст

Страница создана 24.02.2016
http://primanota.ru/tmrevolution-2/zips-chords.htm
Привет, Гость.
Предлагаем пройти революционный курс по гитаре.
Подарок от PrimaNota.Ru, забирай!