PrimaNota.ru - самый крупный в мире бесплатный архив песенных текстов, аккордов, табулатур и нот


T.M.Revolution - Crosswise - текст песни, таба, видео

Регистрация Запомнить меня
Войти через:  Facebook Google Twitter Vk Yandex Mail.ru

T.M.Revolution - Crosswise - текст песни, таба, видео

Печатать
Просмотров: 84
Song: Crosswise
Artist: TM Revolution
Tabber: maximushyrule

Tunning: Drop D or C
use crunch effects when you play this

Intro

|----------------------------------------------------------------|
|----------------------------------------------------------------|
|----------------------------------------------------------------|
|-10-7--77-77--10--101010-12-13--7--77-77--13--131313-12-10------|     x4
|-10-7--77-77--10--101010-12-13--7--77-77--13--131313-12-10------|
|-10-7--77-77--10--101010-12-13--7--77-77--13--131313-12-10------|


verse

|----------------------------------------------------------------|
|----------------------------------------------------------------|
|----------------------------------------------------------------|
|-10-7--77-77--10--101010-12-13--7--77-77--13--131313-12-10------|     x4
|-10-7--77-77--10--101010-12-13--7--77-77--13--131313-12-10------|
|-10-7--77-77--10--101010-12-13--7--77-77--13--131313-12-10------|


Bridge:
|------------------------------------------------|
|------------------------------------------------|
|------------------------------------------------|
|-101010-8-10--8-10--8-10-10--12-14--18--17--13~-|
|-101010-8-10--8-10--8-10-10--12-14--------------|
|-101010-8-10--8-10--8-10-10--12-14--------------|

|-------------------------------------|
|-------------------------------------|
|-------------------------------------|
|-888-6-8--6-8--6-8-8--8-10---8---7---|
|-888-6-8--6-8--6-8-8--8-10---8---7---|
|-888-6-8--6-8--6-8-8--8-10---8---7---|


Chorus:

|-------|-------|-------|-------|-------|-------|--------------|
|-------|-------|-------|-------|-------|-------|--------------|
|-5-----|-9-----|-7-----|-9-----|-4-----|-9-----|-7----9-------|
|-3-----|-9-----|-5-----|-7-----|-2-----|-9-----|-5----7-------|      x2
|-3-----|-9-----|-5-----|-7-----|-2-----|-9-----|-5----7-------|
|-3-----|-9-----|-5-----|-7-----|-2-----|-9-----|-5----7-------|

Solo:

|---------------------------|---------------------------|
|-10~~~~~~12~~13~~12~~~~~---|-10~~~~~~12~~13~~13~~~~15--|b
|------------------------9~~|---------------------------|
|---------------------------|---------------------------|
|---------------------------|---------------------------|
|---------------------------|---------------------------|

i love this song!!
Добавлено: 24.02.2016
Другие материалы по этой песне:
  • Аккорды и текст

Страница создана 26.09.2014
http://primanota.ru/tmrevolution-2/crosswise-chords.htm
Привет, Гость.
Предлагаем пройти революционный курс по гитаре.
Подарок от PrimaNota.Ru, забирай!