PrimaNota.ru - самый крупный в мире бесплатный архив песенных текстов, аккордов, табулатур и нот


Tm Revolution - Heart Of Sword - аккорды и текст, видео

Регистрация Запомнить меня
Войти через:  Facebook Google Twitter Vk Yandex Mail.ru

Tm Revolution - Heart Of Sword - аккорды и текст, видео

Печатать
Просмотров: 78
Heart Of Sword
Tm Revolution
riff1
e|----------19p17--|
B|--17h19----------|
G|-----------------|
D|-----------------|
A|-----------------|
E|-----------------|


G A F# B
hitori de wa tooi ashita o 
yoake no mama de koe sou de 
bukkatte ikya kokeru omoi yo 
G A B
kon yo mo mata sure chigai

A B
sanzan sugite doryoku no ato mo 
nakunaru kekka only no tsunawatari 
yaru dake sonsuru yo na mainichi wa 
riff1
shani kamaeteta hou koso raku ni naru 

(-bass and drums only-)


(atsukute)
tsurai!
(jibun o)
kakushite!
(mijikai)
toki o ikiteru!

G A F# B
hitori de wa tooi ashita o 
yoake no mama de koe sou de 
hanatto keba hashiru omoi yo 
G A B
yume mo mata sure chigai 

A B
kanpe kitochau jinsei no ushushi 
puremai - zero dananteba honto ka na? 
shinu made ni tsukai kiru un no kazu 
semete jibun de dashi haire o sasete 

(wakacchai)
ni nai!
(kimi nara)
dooni demo!
(rikutsu o)
kaete ii no ni!

G A F# B
nando kimi ni ketsu mazuitemo 
modotte kichau aijou ni 
shinji kaneru utare tsuyo sayo
G A B
kon yo mo sootoo nemurenai 

Guitar Solo:


e|----------------------------------------9--12--9------7-----7---|
B|------------------------------------10------------10-----7------|
G|-----6--7--9--6--6--7--9--7--9--11------------------------------|
D|--9-------------------------------------------------------------|
A|----------------------------------------------------------------|
E|----------------------------------------------------------------|


e|--10---12b14r12---12--10--9----------------------------------------------|
B|-----------------------------10--------------------10------12b14r12p10---|
G|---------------------------------9-------------11------11----------------|
D|------------------------------------12--11~~~----------------------------|
A|-------------------------------------------------------------------------|
E|-------------------------------------------------------------------------|


e|----------------------10--12b14~~|
B|---------10--12b14---------------|
G|--9--11--------------------------|
D|---------------------------------|
A|---------------------------------|
E|---------------------------------|

(-shots only-)
nando nankai kuri kaeshite mo 
modotte kichau ai dakara 
bukkatteiku kesenu omoi o 
semeru hou ga sujichigai

Ab Bb G C
hitori de wa tooi ashita o 
yoake no mama de koete yuku 
aishou yori mo fukai futari wa
Ab Bb C
sore chigatte kamawanai 

Outtro (fading):

e|-----------8--10--11--10---------------------------------------------|
B|--11b13-----------------11-------------------------------------------|
G|------------------------------10--8-----------------8--10--10b12r10--|
D|-------------------------------------12--12--8--10-------------------|
A|---------------------------------------------------------------------|
E|---------------------------------------------------------------------|

e|-------------------------------------------------------------|
B|-------------------------------------------------18b20~~~----|
G|--10p8h10p8--7h8p7------7------------------------------------|
D|--------------------10-----10p8--10--12--12------------------|
A|---------------------------------------------10--------------|
E|-------------------------------------------------------------|

e|--18--18b20--18--15-----------------------------------------------------------------|
B|---------------------18--16-----------------15--16----------------------------------|
G|-----------------------------15--17-----17----------15--17----15--17--15------------|
D|--------------------------------------------------------------------------15--17----|
A|------------------------------------------------------------------------------------|
E|------------------------------------------------------------------------------------|

/----x4-----\
e|---------18----|--------------------------------------------------|
B|---15h16---16--|--15--15------15----------------------------------|
G|---------------|----------17------15--17--------------------------|
D|---------------|--------------------------15--17--13--15--12--13--|
A|---------------|--------------------------------------------------|
E|---------------|--------------------------------------------------|


e|--------------------10--8~~~---|
B|-----------------8-------------|
G|----------8--10----------------|
D|--10--12-----------------------|
A|-------------------------------|
E|-------------------------------|

Chorus after solo: 3(Ab Bb G C) Ab Bb C
Добавлено: 27.09.2014
Другие материалы по этой песне:

Страница создана 21.06.2012
http://primanota.ru/tm-revolution/heart-of-sword-chords.htm
Привет, Гость.
Предлагаем пройти революционный курс по гитаре.
Подарок от PrimaNota.Ru, забирай!