PrimaNota.ru - самый крупный в мире бесплатный архив песенных текстов, аккордов, табулатур и нот


Tk - Alas Cortadas - аккорды и текст, видео

Регистрация Запомнить меня
Войти через:  Facebook Google Twitter Vk Yandex Mail.ru

Tk - Alas Cortadas - аккорды и текст, видео

Печатать
Просмотров: 98
Alas Cortadas
Tk
    C   G  Am   F
e|------3-------1---|
B|--1-------1---1---|
G|----------2---1---|
D|--2-------2---3---|
A|--3---2-------3---|
E|------3-------1---|



INTRO

  C – G – Am – F
e|-------------3------------------------|
B|---------------5/6/5----5/6-6/8.------|
G|-5..-7.-4.----------2.-----------5..--|
D|--------------------------------------|
A|--------------------------------------|
E|--------------------------------------|      (x2)

C              	G
  Sentado solo frente al mar
Am             	F
  mirando a las aves volar
C                     G
  encuentra en ellas libertad
Am                  F                C
  aquella que no encuentra en su ciudad
       G   Am               F 	       C
dale a él,     dale un poco de felicidad
                  G  Am       	     F         	    G
no quiero verlo así,    pensando en lo que será de sí.

Am   		   F            C	     G
Juega con él, disfruta de su niñez, eso es así.
Am		 F		  G		   
Busca en él, la voz de aquel, que algún día conoceré.


 Solo  ( C – G – Am – F – C – G – Am – F – G) 
e|----------------------------------------------5.---5-5-5-3.----|
B|-5..-5-5-5-5-5-3----3.—4/5-5-3-3------------5------------------|
G|-----------------5--------------3.--3-3-5----------------------|
D|---------------------------------------------------------------|
A|---------------------------------------------------------------|
E|---------------------------------------------------------------|


e|----5-7---------8.-7-7-5----------------------------------|
B|----------8.------------------8-6-5-6.--6-5-6-8..---------|
G|-5------------5-------------------------------------------|
D|----------------------------------------------------------|
A|----------------------------------------------------------|
E|----------------------------------------------------------|

Am   		   F            C	     G
Y juega con él, disfruta de su niñez, eso es así.
Am		 F		  G		   
Busca en él, la voz de aquel, que algún día conoceré.


( C – G – Am – F) 
|---7 veces---|
e|------------------------------------------|
B|-------5-6-8--6-5.-6-5--------------------|
G|-5-7---------------------7-5-7.-5.--------|
D|------------------------------------------|
A|------------------------------------------|
E|------------------------------------------|

C              	G
  Sentado solo frente al mar
Am             	F
  mirando a las aves volar
C                     G
  encuentra en ellas libertad
Am                  F                G
  aquella que no encuentra en su ciudad


Solo 2   ( Am – F – C – G – Am – F – C – G )

e|--------------------------3--------------|
B|----------------------------6-5-5.-(3)---|
G|-5-4-2..------2-2..----------------------|
D|----------3-5-------5..------------------|
A|-----------------------------------------|
E|-----------------------------------------|


e|--------------------------5.-3---------------------|
B|--------------------------------5-3----------------|
G|-5-4-2..------2-2..----------------5-2-5-5-2.------|
D|----------3-5-------5..----------------------------|
A|---------------------------------------------------|
E|---------------------------------------------------|

Am   		   F            C	     G
Y juega con él, disfruta de su niñez, eso es así.
Am		 F		  G		   C
Busca en él, la voz de aquel, que algún día conoceré.

e|-3..-------------------------------|
B|-----5-4-5-4-2----------1/3-1..----|
G|-----------------5.----2-----------|
D|---------------------5-------------|
A|-----------------------------------|
E|-----------------------------------|

[END]
Добавлено: 16.06.2012
Другие материалы по этой песне:
  • Аккорды и текст

Страница создана 16.06.2012
http://primanota.ru/tk/alas-cortadas-chords.htm
Привет, Гость.
Предлагаем пройти революционный курс по гитаре.
Подарок от PrimaNota.Ru, забирай!