PrimaNota.ru - самый крупный в мире бесплатный архив песенных текстов, аккордов, табулатур и нот


Tj Monterde - Ikaw At Ako - аккорды и текст, видео

Регистрация Запомнить меня
Войти через:  Facebook Google Twitter Vk Yandex Mail.ru

Tj Monterde - Ikaw At Ako - аккорды и текст, видео

Печатать
Просмотров: 80
Ikaw At Ako
Tj Monterde
First tab ko po to ... please rate, comment or correct po para malaman ko po mg side nyo . 

Ikaw at Ako - TJ Monterde (intro)



FIRST PART

|-----------------5-----------------------|
|-----3--3/5--5/7---5/7--5--3--5--5/7-----|
|---2-------------------------------------|
|-----------------------------------------|
|-----------------------------------------|
|-----------------------------------------|



SECOND PART

|-----------------5-----------------------|
|-----3--3/5--5/7---5/7--5--7--3----------|
|---2-----------------------------2/4-----|
|-------------------------------------2/4-|
|-----------------------------------------|
|-----------------------------------------|



Enjoy !
Добавлено: 22.07.2014
Другие материалы по этой песне:
  • Аккорды и текст

Страница создана 10.03.2014
http://primanota.ru/tj-monterde/ikaw-at-ako-chords.htm
Привет, Гость.
Предлагаем пройти революционный курс по гитаре.
Подарок от PrimaNota.Ru, забирай!