PrimaNota.ru - самый крупный в мире бесплатный архив песенных текстов, аккордов, табулатур и нот


Titus Andronicus - No Future Part One - таба, видео

Регистрация Запомнить меня
Войти через:  Facebook Google Twitter Vk Yandex Mail.ru

Titus Andronicus - No Future Part One - таба, видео

Печатать
Просмотров: 87
This is a complete arrangement for one guitar.

(~ = let ring)
E|----------------------------------------------------------|
B|----------------------------------------------------------|
G|-0~--------------------------0~---------------------------|
D|----------------------------------------------------------|
A|----------------------------------------------------------|
E|----------------------------------------------------------|

(every bar starts with G still ringing from the previous bar)

Just give me a suitcase and I promise to not look back
E|----------------------------------------------------------|
B|-----------------3----------------------------------------|
G|-------------2/4-----------4---4-4---4--2---0--------0~---|
D|------------------------------------------------2---------|
A|----------------------------------------------------------|
E|----------------------------------------------------------|

Just point me, point me towards the railroad track (same)

I've been staring at the gates but I never found a crack
E|----------------------------------------------------------|
B|----------------------------------------------------------|
G|------------------------3--------4--4-4---2----0--5--0~---|
D|--------------------2/4-----------------------------------|
A|----------------------------------------------------------|
E|----------------------------------------------------------|

  So I'm just looking up saying deliver me    a heart attack
E|----------------------------------------------------------|
B|--------------------3----------------------3--------------|
G|-0--2---4---2---4-------4--2--0--5---0--2/4----4/2p0~-----|
D|----------------------------------------------------------|
A|----------------------------------------------------------|
E|----------------------------------------------------------|

(two more verses like this)

And if things should not get better, will you wait for me to change
E|--------------------------------------------------------------------|
B|--------------------------------------------------------------------|
G|---------------2---0---2---0---0----4---4---4---2---0---2---0~------|
D|--------------------------------------------------------------------|
A|--------------------------------------------------------------------|
E|--------------------------------------------------------------------|

Or will I see you waving goodbye from window of an aeroplane
E|--------------------------------------------------------------------|
B|-------------------------------------3--3--3------------------------|
G|----4--4--4--2--0--2---5---0---2--------------5--4--5--4------------|
D|--------------------------------------------------------------------|
A|--------------------------------------------------------------------|
E|--------------------------------------------------------------------|


   If I told you it was hopeless would you try to understand
E|--------------------------------------------------------------------|
B|--------------------------------------------------------------------|
G|--4--4--4---2---0---2---0---0----4---4---4---2---0---2---4----------|
D|--------------------------------------------------------------------|
A|--------------------------------------------------------------------|
E|--------------------------------------------------------------------|

Or will you leave me for a palm tree and it's shadow on the sand
E|---------------------------------------------------------------------|
B|------------------------------------3---3---3------------------------|
G|---4---4---4---2---0--2---5---0--2---------------5--4--5--4--4/2-2p0-|
D|---------------------------------------------------------------------|
A|---------------------------------------------------------------------|
E|---------------------------------------------------------------------|

                        C                               G
Cause I've been waiting all year for the temperature to drop
                C    Am                D               G
Now I've got a fever and I don't know how to make it stop


      Em                                Am
But there's still one shoe that hasn't dropped yet,
                      C                 D
It's hanging on by an aglet, this world seems
                      G   G/F#  C
Like a nice place to visit

   But I don't want to live in it
E|----------------------------------------------------------|
B|-------------------3--------------------------------------|
G|--------------2/4-----4/2p0~------------------------------|
D|----------------------------------------------------------|
A|----------------------------------------------------------|
E|----------------------------------------------------------|

Bridge 1

  2x           G                    C   Am   D    G
E|-------------3-33-3-|-------------0-0-0000-2222-3---------|
B|-------------0-00-0-|-------------1-1-1111-3333-0---------|
G|-2/4-4-2-0-2-0-00-0-|-2/4-4-2-0-2-0-0-2222-2222-0---------|
D|-------------0-00-0-|-------------2-2-2222-0000-0---------|
A|-------------2-22-2-|-------------3-3-0000------2---------|
E|-------------3-33-3-|---------------------------3---------|

(repeat twice)

This part I play with power chords:

                G                       G
There is not a doctor that can diagnose me
             C     Am      D             G
I am dying slowly from Patrick Stickles disease

...
               C                              G
Life's been a long sick game of "would you rather"
                     C        Am   D        G
So now I'm going to medical school as a cadaver


Then same chords as the shoe part.

Bridge 2:

E|-------3---------------0----------------------------------|
B|-----3-3---------------1----------------------------------|
G|-2/4---0---4-4-4-2-0---0----------------------------------|
D|-------0-------------2-2----------------------------------|
A|-----------------------3----------------------------------|
E|----------------------------------------------------------|

(repeat several times)

 G                               C
Good times, good times are here again

(repeat many times, end the last one with C Am transition)

Then play G C again many times, and/or something like this:
E|----------------------------------------------------------|
B|-3-5--3---------------------------------------------------|
G|--------5-4--5--2--4---5--2--0---5--2--0------------------|
D|----------------------------------------------------------|
A|----------------------------------------------------------|
E|----------------------------------------------------------|
Добавлено: 17.08.2013
Другие материалы по этой песне:
  • Аккорды и текст

Страница создана 17.08.2013
http://primanota.ru/titus-andronicus/no-future-part-one-chords.htm
Привет, Гость.
Предлагаем пройти революционный курс по гитаре.
Подарок от PrimaNota.Ru, забирай!