PrimaNota.ru - самый крупный в мире бесплатный архив песенных текстов, аккордов, табулатур и нот


Title Fight - Youreyeah - таба, бас-таба, видео

Регистрация Запомнить меня
Войти через:  Facebook Google Twitter Vk Yandex Mail.ru

Title Fight - Youreyeah - таба, бас-таба, видео

Печатать
Просмотров: 147
Уроки эстрадного вокала в Санкт-Петербурге
http://www.myspace.com/titlefight



e|-----------------------------------------------------|
B|-----------------------------------------------------|
G|-4------------------------------------------4--------| 
D|-4-----4/6--6--6\4----4/6--6--6\4---4--2----4--------|
A|-2-----4/6--6--6\4----4/6--6--6\4---4--2----2--------|
E|-------2/4--4--4\2----2/4--4--4\2---2--0-------------|



e|--------------------------------------------------|
B|--------------------------------------------------|
G|-8--6--4--11---8--4----6/8\6\4/6/4----------------|
D|-x--x--x--x----x--x----x/x\x\x/x/x----------------|
A|-6--4--2--9----6--2----4/6\4\2/4/2----------------|
E|--------------------------------------------------|



e|---------------------------------------------------|
B|---------------------------------------------------|
G|-4--6---------8--4------6/8\6--6/8\4--6/8\6--6/8\4-|
D|-4--6--2------x--x------x/x\x--x/x\x--x/x\x--x/x\x-|
A|-2--4--2------6--2------4/6\4--4/6\2--4/6\4--4/6\2-|
E|-------0-------------------------------------------|



e|-----------------|
B|-----------------|
G|-4-----------9---|
D|-4-----6-----9---| X2
A|-2-----6-----7---|
E|-------4---------|



e|--------------------------------------------------|
B|--------------------------------------------------|
G|-4--4--x--------6--6--8-------------8--4----------|
D|-4--4--x--4--4--6--6--8---2-2-2-----x--x----------|
A|-2--2--x--4--4--4--4--6---2-2-2-----6--2----------|
E|----------2--2------------0-0-0-------------------|
                           pm pm pm
Добавлено: 17.06.2012
Другие материалы по этой песне:
  • Аккорды и текст

Страница создана 17.06.2012
http://primanota.ru/title-fight/youreyeah-chords.htm
Привет, Гость.
Предлагаем пройти революционный курс по гитаре.
Подарок от PrimaNota.Ru, забирай!