PrimaNota.ru - самый крупный в мире бесплатный архив песенных текстов, аккордов, табулатур и нот


Title Fight - Western Haikus - таба, видео

Регистрация Запомнить меня
Войти через:  Facebook Google Twitter Vk Yandex Mail.ru

Title Fight - Western Haikus - таба, видео

Печатать
Просмотров: 105
-----------------------------------------------------------------------------
                             WESTERN HAIKUS - Title Fight
-----------------------------------------------------------------------------

Tabbed by: Raphael Bastek
Email: raf_gpm@yahoo.com

Tuning: Drop D

Key:
. = palm mute
/ = slide

Lead Guitar only.

Part A

e|------------------------|--repeat, then play this------------------------|
B|------------------------|--after each subsequent time--------------------|
G|-/9999-7777-0000-0-000--|--9999 7 9 7------------------------------------|
D|-/0000-0000-9999-7-555--|--0000-0-0-0------------------------------------|
A|------------------------|------------------------------------------------|
E|------------------------|------------------------------------------------|

Part B

e|-------------------------------------------------------------------------|
B|-------------------------------------------------------------------------|
G|-------------------------------------------------------------------------|
D|-55-5--77-7--7777--------------------------------------------------------|
A|-55-5--77-7--7777--------------------------------------------------------|
E|-55-5--77-7--7777--------------------------------------------------------|
   ..    ..

Part C (1:48-1:52ish)
Just play G5

D|-5-|
A|-5-|
E|-5-|

repeatedly.
Добавлено: 21.03.2012
Другие материалы по этой песне:

Страница создана 21.03.2012
http://primanota.ru/title-fight/western-haikus-chords.htm
Привет, Гость.
Предлагаем пройти революционный курс по гитаре.
Подарок от PrimaNota.Ru, забирай!