PrimaNota.ru - самый крупный в мире бесплатный архив песенных текстов, аккордов, табулатур и нот


Titas - Aa Uu - текст песни, таба, видео

Регистрация Запомнить меня
Войти через:  Facebook Google Twitter Vk Yandex Mail.ru

Titas - Aa Uu - текст песни, таба, видео

Печатать
Просмотров: 165
Intro: A, F#m


             A         F#m 
E|------5---5----2--2--------|
B|------5---5----2--2--------|
G|------6---6----2--2--------|
D|---------------------------|
A|---------------------------|
E|---------------------------|



             A         F#m            A          G
E|------5---5----2--2----------5--5----3--3---|
B|------5---5----2--2----------5--5----3--3---|
G|------6---6----2--2----------6--6----4--4---|
D|--------------------------------------------|
A|--------------------------------------------|
E|--------------------------------------------|


A     F#m
O-o, 
A     F#m
O-o, 
A  G 
   O-o (repeat 4 times)

   A    F#m
AA UU
A    F#m
AA UU
A    F#m
AA UU
A    F#m
AA UU

distortion guitar (verse)  

         A        F#m                     A       F#m
E|-------------------------------------------------------|
B|-------------------------------------------------------|
G|----2--2-------------------------2-2-------------------|
D|----2--2---4--4------2h4p2---2-2---4--4----------------|
A|---------------------4---------------------------------|
E|-------------------------------------------------------|


   A                                F#m
Estou ficando louco de tanto pensar
    A                               F#m
Estou ficando rouco de tanto gritar

repete 1x

A    F#m
AA UU
A    F#m
AA UU
A    F#m
AA UU
A    F#m
AA UU

         A               F#m
Eu como, eu durmo
Eu durmo, eu como
Eu como, eu durmo
Eu durmo, eu como

       (E)

E|---------------------------|
B|---------------------------|
G|---------------------------|
D|-----2---------------7-9---|
A|-----2-----7-7-7-9---------|
E|-----0---------------------|


(E)
Esta na hora de acordar
Esta na hora de deitar
Esta na hora de almoçar
Esta na hora de jantar

a, a, a, a, a, a, a, a

     (AA UU)

E|------------------------|
B|------------------------|
G|------------------------|
D|----------4~--------4~--|
A|------------------------|
E|-----2---------2--------|


A    F#m
AA UU
A    F#m
AA UU
A    F#m
AA UU
A    F#m
AA UU

solo: (A, F#m)

A    F#m
AA UU
A    F#m
AA UU
A    F#m
AA UU
A    F#m
AA UU


A        F#m                     A       F#m
E|------------------------------------------------|
B|------------------------------------------------|
G|----2--2-------------------------2-2------------|
D|----2--2---4--4------2h4p2---2-2---4--4---------|
A|---------------------4--------------------------|
E|------------------------------------------------|


   A                                F#m
Estou ficando cego de tanto enxergar
Estou ficando surdo de tanto escutar

repeat 1x

A    F#m
AA UU
A    F#m
AA UU
A    F#m
AA UU
A    F#m
AA UU

        A                F#m
Não como, não durmo
Não durmo, não como
Não como, não durmo
Não durmo, não como

       (E)

E|---------------------------|
B|---------------------------|
G|---------------------------|
D|-----2---------------7-9---|
A|-----2-----7-7-7-9---------|
E|-----0---------------------|


(E)
Esta na hora de acordar
Esta na hora de deitar
Esta na hora de almoçar
Esta na hora de jantar

a, a, a, a, a, a, a, a


E|-------------------------|
B|-------------------------|
G|-------------------------|
D|----------4~--------4~---|
A|-------------------------|
E|-----2---------2---------|


A    F#m
AA UU
A    F#m
AA UU
A    F#m
AA UU
A    F#m
AA UU

A     F#m
O-o, 
A     F#m
O-o, 
A  G 
   O-o

repeat 4 times
Добавлено: 22.08.2015
Другие материалы по этой песне:
  • Аккорды и текст

Страница создана 11.11.2013
http://primanota.ru/titas/aa-uu-chords.htm
Привет, Гость.
Предлагаем пройти революционный курс по гитаре.
Подарок от PrimaNota.Ru, забирай!