PrimaNota.ru - самый крупный в мире бесплатный архив песенных текстов, аккордов, табулатур и нот


Tism - Sid Viscous - аккорды и текст, видео

Регистрация Запомнить меня
Войти через:  Facebook Google Twitter Vk Yandex Mail.ru

Tism - Sid Viscous - аккорды и текст, видео

Печатать
Просмотров: 69
Sid Viscous
Tism
Tism - Sid Viscous
Drop D Tuning

Verse
E|--------------------|
B|--------------------|
G|-4-4-4--------------|
D|-4-4-4-2-2-4-4-4----| (repeated)
A|-2-2-2-2-2-4-4-4----|
D|-------2-2-4-4-4----|

Post-Verse
E|-----|
B|-----|
G|-4-4-|
D|-4-4-| (repeat 15 times. As necessary)
A|-2-2-|
D|-----|

Small solo part
E|-7h10h9-7h10h9-7h10h9-7h10h9-7-|
B|-------------------------------|
G|-------------------------------|
D|-------------------------------|
A|-------------------------------|
D|-------------------------------|

Play Verse Again. (As necessary)
Post-Verse
E|-----|
B|-----|
G|-4-4-|
D|-4-4-| (repeat as necessary)
A|-2-2-|
D|-----|

E|---------------------------------------|
B|---------------------------------------|
G|-4-4---------------4-4-----------------|
D|-4-4---------------4-4-------------0---|
A|-2-2---0-2---0-2-1-2-2---0-2---0-2---2-|
D|-----4-----4-----------4-----4---------|

E|---------------------------------------------|
B|---------------------------------------------|
G|-4-4---------------4-4-----------------------|
D|-4-4---------------4-4-------------4h3h2-0---|
A|-2-2---0-2---0-2-1-2-2---0-2---0-2---------2-|
D|-----4-----4-----------4-----4---------------|

Play Verse Until End

I think that's it. (It's hard to tell with TISM!)
This song can be played in Standard tuning, but I find it easier to play it 
in Drop D
Just make the alterations to play it in EADGBE.

Email me for corrections!

Zak.

     
Добавлено: 16.08.2013
Другие материалы по этой песне:
  • Аккорды и текст

Страница создана 16.08.2013
http://primanota.ru/tism/sid-viscous-chords.htm
Привет, Гость.
Предлагаем пройти революционный курс по гитаре.
Подарок от PrimaNota.Ru, забирай!