PrimaNota.ru - самый крупный в мире бесплатный архив песенных текстов, аккордов, табулатур и нот


Tiromancino - Amore Impossibile - аккорды и текст, таба, видео

Регистрация Запомнить меня
Войти через:  Facebook Google Twitter Vk Yandex Mail.ru

Tiromancino - Amore Impossibile - аккорды и текст, таба, видео

Печатать
Просмотров: 95
Уроки эстрадного вокала в Санкт-Петербурге
Amore Impossibile
Tiromancino
		   titolo:AMORE IMPOSSIBILE
artita:TIROMANCINO
album:ILLUSIONI PARALLELE [2004]

a cura di Alberto Giordano

*RIFF
--11-13-11-13-11-13-------11-13-11-13-11-13-----11-13-11-13-11-13-----11-13-11-13-11-13-8
13------------------13-13------------------13-13----------------13-13---------------------
------------------------------------------------------------------------------------------
------------------------------------------------------------------------------------------
------------------------------------------------------------------------------------------
------------------------------------------------------------------------------------------

*VERSE
Cm		Sol#
Rimani qui, scende la sera
Cm          Sol#
Sopra di noi si poserà
Cm              Sol#
Aspetteremo così la primavera
Cm              Sol#
Solo se vuoi ci troverà

*PRECHORUS

Sol#	 Sol	 Cm
E perdo dentro ai tuoi occhi
Sol#
Che sorridono
Sol
Ma ora so


*CHORUS

Cm				Sol#
E' amore impossibile quello che mi chiedi
Cm				Sol#
Sentire ciò che tu sola senti e vedere ciò che vedi
Cm	       Bb	A	 Sol#
Chiudere la realtà dentro la tua isola
Sol
Ma non perdere la voglia di
Cm				Sol#
volare perché l'amore è amore impossibile
Cm				Sol#
Quando non riesce a seguire l'irraggiungibile
Cm	       Bb	A	 Sol#
Senso di libertà oltre le stelle e il cielo
Sol#			  Sol
Che è nascosto sul fondo dell'anima


*RIFF
--11-13-11-13-11-13-------11-13-11-13-11-13-----11-13-11-13-11-13-----11-13-11-13-11-13-8
13------------------13-13------------------13-13----------------13-13---------------------
------------------------------------------------------------------------------------------
------------------------------------------------------------------------------------------
------------------------------------------------------------------------------------------
------------------------------------------------------------------------------------------

*VERSE
Rimani qui, non sei da sola
Se partirai ti seguirò
E ce ne andremo così senza paura
Tempo per noi si troverà

*PRECHORUS
E perdo dentro ai tuoi sogni
Che mi avvolgono
Ma ora so......

*CHORUS
Cm				Sol#
E' amore impossibile quello che mi chiedi
Cm				Sol#
Sentire ciò che tu sola senti e vedere ciò che vedi
Cm	       Bb	A	 Sol#
Chiudere la realtà dentro la tua isola
Sol
Ma non perdere la voglia di
Cm				Sol#
volare perché l'amore è amore impossibile
Cm				Sol#
Quando non riesce a seguire l'irraggiungibile
Cm	       Bb	A	 Sol#
Senso di libertà oltre le stelle e il cielo
Sol#			  Sol
Che è nascosto sul fondo dell'anima

Dom-Sol#
Dom-Sol#	Sol#

Cm	       Bb	A	 Sol#
Chiudere la realtà dentro la tua isola
Sol
Ma non perdere la voglia di
Cm				Sol#
volare perché l'amore è amore impossibile
Cm				Sol#
Quando non riesce a seguire l'irraggiungibile
Cm	       Bb	A	 Sol#
Senso di libertà oltre le stelle e il cielo
Sol#			  Sol		Cm
Che è nascosto sul fondo dell'anima
Sol#			  Sol		Cm
Che è nascosto sul fondo dell'anima
Sol#			  Sol		Cm
Che è nascosto sul fondo dell'anima
Sol#			  Sol		Cm
Che è nascosto sul fondo dell'anima

*RIFF
--11-13-11-13-11-13-------11-13-11-13-11-13-----11-13-11-13-11-13-----11-13-11-13-11-13--
13------------------13-13------------------13-13----------------13-13--------------------
-----------------------------------------------------------------------------------------
-----------------------------------------------------------------------------------------
-----------------------------------------------------------------------------------------
-----------------------------------------------------------------------------------------


----11-13-11-13-11-13-------11-13-11-13-11-13-----11-13-11-13-11-13-----11-13-11-13-11-13-8--
13-13------------------13-13------------------13-13----------------13-13---------------------
--------------------------------------------------------------------------------------------
--------------------------------------------------------------------------------------------
---------------------------------------------------------------------------------------------
-----------------------------------------------------------------------------------------	     
Добавлено: 07.06.2013
Другие материалы по этой песне:
  • Аккорды и текст

Страница создана 07.06.2013
http://primanota.ru/tiromancino/amore-impossibile-chords.htm
Привет, Гость.
Предлагаем пройти революционный курс по гитаре.
Подарок от PrimaNota.Ru, забирай!