PrimaNota.ru - самый крупный в мире бесплатный архив песенных текстов, аккордов, табулатур и нот


Tiny Vipers - Tiger Mountain - таба, видео

Регистрация Запомнить меня
Войти через:  Facebook Google Twitter Vk Yandex Mail.ru

Tiny Vipers - Tiger Mountain - таба, видео

Печатать
Просмотров: 135
-------------------------------------------------------------------------------
                             TIGER MOUNTAIN - Tiny Vipers
-------------------------------------------------------------------------------
Tabbed by: Miles
E-mail: herpderpface@y7mail.com

[EDIT]: Fixed it up!! I made a few stupid mistakes. 

Didn't find any tabs for this, so decided to pick it out. Surprisingly lovely song for 
its incredible simplicity.

CAPO 2

There are only two chords throughout the whole song: Am and some G chord that I 
couldn't be bothered to look up.
The little thing she plays is this:

e|----------------------------------------|
B|-1---1---1---1-3-1---1---1---1----------|
G|---2---2---2-------2---2---2---2--------|
D|----------------------------------------|
A|-0--------------------------------------|
E|----------------------------------------|

That's the introduction and the bits in-between the verses and choruses. During the 
verses and choruses she leaves out the D (3rd fret on B), making it easier to sing at the 
same time, so it's just:

e|--------------------------------|
B|-1---1---1---1---1---1----------|
G|---2---2---2---2---2---2--------|
D|--------------------------------|
A|-0------------------------------|
E|--------------------------------|

Play that however many times she does/you want until you get to the G thing:

e|--------------------------|
B|-3---3---3---3------------|
G|---2---2---2--------------|
D|--------------------------|
A|--------------------------|
E|-3------------------------|

And... That's it!
Chorus is basically exactly the same. It's not difficult, if you give it a listen you 
should be able to get it pretty easily.
Добавлено: 25.11.2013
Вам также может быть интересно:
Другие материалы по этой песне:
  • Аккорды и текст

Страница создана 06.07.2013
http://primanota.ru/tiny-vipers/tiger-mountain-chords.htm
Привет, Гость.
Предлагаем пройти революционный курс по гитаре.
Подарок от PrimaNota.Ru, забирай!