PrimaNota.ru - самый крупный в мире бесплатный архив песенных текстов, аккордов, табулатур и нот


Tiny Ruins - Youve Got The Kind Of Nerve I Like - аккорды и текст, видео

Регистрация Запомнить меня
Войти через:  Facebook Google Twitter Vk Yandex Mail.ru

Tiny Ruins - Youve Got The Kind Of Nerve I Like - аккорды и текст, видео

Печатать
Просмотров: 61
Авторы: Hollie Fullbrook

Youve Got The Kind Of Nerve I Like
Tiny Ruins
this tab is entirely based on https://vimeo.com/26351237

capo 1

VERSE 1 (0:25)

C           F
Go see them, down South now,
G                 F 
They'll see you're well looked after.
C              F
See a boy there, mournful & fair,
G               F     
Works the tables to keep him in the share.

CHORUS 1 (0:46)

C               E
Don't say those words again
      F                           G       C
'Cause you've got the kind of nerve I like.
C               E
Don't say those words again
      F                           G       C
'Cause you've got the kind of nerve I like.

VERSE 2

C                   F
Tell him "no" don't mean he's lost her,
G                   F
She was young then, things were stranger.
C                  F
Say she's warm and well looked after,
G                       F
Though her heart's been growin' ever colder.

CHORUS 2 (1:33)

C               E
Don't say those words again
      F                           G       C
'Cause you've got the kind of nerve I like.
C               E
Don't say those words again
      F                           G       C
'Cause you've got the kind of nerve I like.

Hollie then plays these variations on those same chords without vocals
(you could just play through the chorus chords again to keep things simple)

     C Cadd9   E   E7      Em    F         G G6 C
e|---0-0-0-----0-0-0-0-0-0-0-----1-1-1-1---3-0--0---
B|---1-3-1-----0-0-3-3-0-0-0-----1-1-1-1---3-0--1---
G|---0-0-0-----1-1-1-1-1-1-0-----2-2-2-2---0-0--0---
D|---2-2-0-----2-2-2-2-2-2-2-----3-3-3-3---0-0--2---
A|---3-3-3-----2-2-2-2-2-2-2-----3-3-3-3---2-2--3---
E|-------------0-0-0-0-0-0-0-----1-1-1-1-1/3-3------ 


     C Cadd9   E   E7      Em    F         G G6 C
e|---0-0-0-----0-0-0-0-0-0-0-----1-1-1-1---3-0--0---
B|---1-3-1-----0-0-3-3-0-0-0-----1-1-1-1---3-0--1---
G|---0-0-0-----1-1-1-1-1-1-0-----2-2-2-2---0-0--0---
D|---2-2-0-----2-2-2-2-2-2-2-----3-3-3-3---0-0--2---
A|---3-3-3-----2-2-2-2-2-2-2-----3-3-3-3---2-2--3---
E|-------------0-0-0-0-0-0-0-----1-1-1-1-1/3-3------ 

3RD VERSE

C                           F
Though here the winds blow, and winter's stone coat
G                  F
Has covered up all sun and shelter,
C             F
She remembers how you held her,
G                  F
On the warm floor of the bunker.

CHORUS 3 (2:33)

C               E
Don't say those words again
      F                           G       C
'Cause you've got the kind of nerve I like.
C               E
Don't say those words again
      F                           G       C
'Cause you've got the kind of nerve I like.

     C Cadd9   E   E7      Em    F         G G6 C
e|---0-0-0-----0-0-0-0-0-0-0-----1-1-1-1---3-0--0---
B|---1-3-1-----0-0-3-3-0-0-0-----1-1-1-1---3-0--1---
G|---0-0-0-----1-1-1-1-1-1-0-----2-2-2-2---0-0--0---
D|---2-2-0-----2-2-2-2-2-2-2-----3-3-3-3---0-0--2---
A|---3-3-3-----2-2-2-2-2-2-2-----3-3-3-3---2-2--3---
E|-------------0-0-0-0-0-0-0-----1-1-1-1-1/3-3------   


     C Cadd9   E   E7      Em    F         G6add4  C
e|---0-0-0-----0-0-0-0-0-0-0-----1-1-1-1-----------0---
B|---1-3-1-----0-0-3-3-0-0-0-----1-1-1-1---1-1-1---1---
G|---0-0-0-----1-1-1-1-1-1-0-----2-2-2-2---0-0-0---0---
D|---2-2-0-----2-2-2-2-2-2-2-----3-3-3-3---0-0-0---2---
A|---3-3-3-----2-2-2-2-2-2-2-----3-3-3-3---2-2-2---3---
E|-------------0-0-0-0-0-0-0-----1-1-1-1---3-3-3-------   

Добавлено: 01.08.2015
Другие материалы по этой песне:
  • Аккорды и текст

Страница создана 01.08.2015
http://primanota.ru/tiny-ruins/youve-got-kind-of-nerve-i-like-chords.htm
Привет, Гость.
Предлагаем пройти революционный курс по гитаре.
Подарок от PrimaNota.Ru, забирай!