PrimaNota.ru - самый крупный в мире бесплатный архив песенных текстов, аккордов, табулатур и нот


Tiny Moving Parts - Fair Trade - таба, бас-таба, видео

Регистрация Запомнить меня
Войти через:  Facebook Google Twitter Vk Yandex Mail.ru

Tiny Moving Parts - Fair Trade - таба, бас-таба, видео

Печатать
Просмотров: 228
Уроки эстрадного вокала в Санкт-Петербурге
-------------------------------------------------------------------------------
                             FAIR TRADE - Tiny Moving Parts
-------------------------------------------------------------------------------
Tabbed by: BePet
E-mail: bpetty555@yahoo.com

NOTE: Here's my attempt of "Fair Trade" by Tiny Moving Parts.  It's probably not absolutely perfect and the 
tuning might not be spot-on, but I feel it's pretty close.  It's not too hard of a song to do although the
verse after the intro can be tricky, and it's very fun to play if you don't mind tuning your guitar weirdly.
Feel free to email me any corrections or comments regarding this tab.  I've been thinking that if everybody
is having trouble with it I can post a cover of myself playing it on YouTube to show you how to play it, so 
email me if I should or not, or if there's anything I can clear up.

The tuning is not standard EADGBe, but FADGCe with a Capo on the 5th fret.  The way I tabbed this was that it's
not relative to the capo, which means that 5 = open string.  Also, the "multipliers" (x2; x6; x!!! etc.) show 
you how many times to play a certain part of the song.  If the multiplier is behind a chord, then you play that
chord a certain amount of times.  If it's within a box/bar, then you play that section of the box/bar that many
times.  And when it is outside the box/bar (like on the far-right of the Guitar One Intro/Guitar Two Intro 
below), then you play that entire bar that many times.  I hope that cleared up any confusion regarding that 
since this is only my 2nd tab and i suk. 

Lastly, the notes in parentheses are notes I couldn't distinguish and I either guessed were there, or 
they just sounded good with the song. Hopefully they don't confuse you too much and maybe you can replace them
with other notes that sound even better. 

Tuning: F A D G C e; Capo 5th Fret

 Guitar One Intro:
e|--13------5-------5-------13------5--5-5-5--5-------------13------5-------5----------5--------5-------------|
C|--5-------7-------9-------5-------9--7-7-7--9-------------5-------7-------9----------5--------5-------------|
G|--5-------5-------5-------5-------5--5-5-5--5-------------5-------5-------5----------9--------10------------|
D|--5-------5-------5-------5-------5--5-5-5--5------(REST)-5-------5-------5----------x--------x------(REST)-|
A|--x-(x6)--x-(x3)--x-(x5)--x-(x6)--x--x-x-x--x-(x6)--------x-(x4)--x-(x3)--x-(x5)-----7-(x8)---8-(x5)--------|
F|--12------7-------9-------12------9--7-7-7--9-------------12------7-------9---------(7)------(9)--------|(x2)

 Guitar Two Intro:
|--13(x6)--15(x3)--17(x5)--13(x6)--17--15(x3)--17(x6)-(REST)--13(x4)--15(x3)--17(x5)--12(x8)--13(x8)--(REST)-|
|--5-------5-------5-------5-------5---5-------5--------------5-------5-------5-------5-------5--------------|
|--5-------5-------5-------5-------5---5-------5--------------5-------5-------5-------5-------5--------------|
|--5-------5-------5-------5-------5---5-------5--------------5-------5-------5-------5-------5--------------|
|------------------------------------------------------------------------------------------------------------|
|--------------------------------------------------------------------------------------------------------|(x2)

Lead Up
|-(13)-(13)-(13)------|-(15)-(15)-(17)---------|
|---------------------|------------------------|
|--10---10---10-------|--12---12---14----------|
|--x----x----x--------|--x----x----x-----------|
|--8----8----8--------|--10---10---12----------|
|--5----5----5--------|--5----5----5-----------|

 Verse: "I see these icicles..."
|--13-------------------------------------------------------------|----------------------|
|-----5-------------------------7p5-------------9p5---------------|--------5-----5-------|
|-------5---------------------------5--------------9h10p9p5-------|-----5-----------5----|
|----------------7h8p7p5------------------------------------------|----------------------|
|-----------------------h8----------------------------------------|--7-------8-----------|
|-(5)-------------------------7--------------9----------------(x3)|--------------------5-|(x2)
 
 Chorus: "...and I want you to know..."
|------------------------|----------------------------------------------------------|
|--------5-----9p5-------|----------------------------------------------------------|
|-----5------------------|----------------------------------------------------------|
|------------------------|-----7--------7-----5-----5-----(5)-----------------------|
|--7--------8------------|--------8--------8-----8-----8-----(8)--------------------|
|--------------------5---|--7--------5------------------------------------------(x4)|
 
 "I feel like a GHOST..."
|---------------------------------------------|
|--(5)------(5)-------(5)---(5)---(5)---------|
|---------------------------------------------|
|-----7--------7-----5-----5-----5------------|
|--------8--------8-----8-----8-----8---------|
|--7--------5---------------------------------|(x4)
 
  Bridge
|-------------------------------------------------------|
|------------------------------------/12----------------|
|--10-x--9--9-9-9--10-x--9--9-9-9-----x-----------------|
|--x--x--x--x-x-x--x--x--x--x-x-x----/10-(x10)----------|
|--8--x--7--7-7-7--8--x--7--7-7-7-----------------------|
|-----x---------------x---------------------------------|

|-----------------------------------------x-----x-----x--x-(5)----------|
|------------------------------------/12--x--10-x--9--x--x--7-----------|
|--10-x--9--9-9-9--10-x--9--9-9-9-----x---x--x--x--x--x--x--5--10-------|
|--x--x--x--x-x-x--x--x--x--x-x-x----/10--x--8--x--7--x--x--5--x--------|
|--8--x--7--7-7-7--8--x--7--7-7-7------------------------------8--------|
|-----x---------------x----------------------------------------5--------|

|-----------------------------------------x-----x-----x--x-(5)----------|
|------------------------------------/12--x--10-x--9--x--x--7-----------|
|--10-x--9--9-9-9--10-x--9--9-9-9-----x---x--x--x--x--x--x--5--9--------|
|--x--x--x--x-x-x--x--x--x--x-x-x----/10--x--8--x--7--x--x--5--x--------|
|--8--x--7--7-7-7--8--x--7--7-7-7------------------------------7--------|
|-----x---------------x----------------------------------------5--------|

 "...where exactly I AM."
|-----------------------------------------------------------------------|
|-12--10--12--10--12--10--9--9--9--12--10--12--10-----------------------|
|-x---x---x---x---x---x---x--x--x--x---x---x---x----9--9--9--10--10--10-|
|-10--8---10--8---10--8---7--7--7--10--8---10--8----x--x--x--x---x---x--|
|---------------------------------------------------7--7--7--8---8---8--|
|---------------------------------------------------5--5--5--5---5---5--|

 "A fraction of a second..."
|--5--------8------------|------------------------------8----5------|--5--------8-----------|
|--7--------9------------|------------7----5------------------------|--7--------9-----------|
|--5--------10-----------|--9------9----------7------7--------------|--5--------10----------|
|--5-------(10)----------|------------------------------------------|--5-------(10)---------|
|--5-(x!!!)-5-(x!!!)-----|------------------------------------------|--5-(x!!!)-5-(x!!!)----|
|--5--------5--------(x4)|--------------------------------------(x2)|--5--------5-------(x2)|

 Chorus: "The image, inside my head..."
|--------------------------------------------|
|--------------------------------------------|
|--------------------------------------------|
|-----7--------7-----5-----5----(5)----------|
|--------8--------8-----8-----8----(8)-------|
|--7--------5--------------------------------|(x4)
 
 Guitar One: "Silence drowns in confusion..."       Guitar Two: "It was a handshake to fulfill a fair trade..."
|-------------------------------------------------|--------------13-------------------13------------|
|--(5)------(5)-------(5)---(5)---(5)-------------|----------12-----12------------12------12--------|
|-------------------------------------------------|------14-------------------14--------------------|
|-----7--------7-----5-----5-----5----------------|--15-------------------15------------------------|
|--------8--------8-----8-----8-----8-------------|-------------------------------------------------|
|--7--------5---------------------------------(x4)|---------------------------------------------(x2)|

 "Dismantle my brain."
|----------------------------------|
|----------------------------------|
|----------------------------------|
|--10---10---10---8---8---8---7----|
|----------------------------------|
|----------------------------------|

 Call this FINALE: "Dear Mom and Dad..."
|------------------------------------------------------------------------------------------------------------|
|--12--12--12---10--10--10---9---9---9----9---9b10r9(p5)-----------------------------------------------------|
|--x---x---x----x---x---x----x---x---x----x---x-------------10--10--10---12--12--12---9---9---9----10--10--10|
|--10--10--10---8---8---8----7---7---7----7---7b8r7(p5)-----x---x---x----x---x---x----x---x---x----x---x---x-|
|-(5)-(5)-(5)--(5)-(5)-(5)--(5)-(5)-(5)--(5)-(5)------------8---8---8----10--10--10---7---7---7----8---8---8-|
|-(5)-(5)-(5)--(5)-(5)-(5)--(5)-(5)-(5)--(5)-(5)-----------(5)-(5)-(5)--(5)-(5)-(5)--(5)-(5)-(5)--(5)-(5)-(5)|

 "If I die in my sleep tonight..."
|------------------------------------------------------------------------------------------------------------|
|-/12--12--12---10--10--10---9---9---9----9---9b10r9(p5)-----------------------------------------------------|
|-/x---x---x----x---x---x----x---x---x----x---x-------------10--10--10---12--12--12---9---9---9----9---10--10|
|-/10--10--10---8---8---8----7---7---7----7---7b8r7(p5)-----x---x---x----x---x---x----x---x---x----x---x---x-|
|-(5)-(5)-(5)--(5)-(5)-(5)--(5)-(5)-(5)--(5)-(5)------------8---8---8----10--10--10---7---7---7----7---8---8-|
|-(5)-(5)-(5)--(5)-(5)-(5)--(5)-(5)-(5)--(5)-(5)-----------(5)-(5)-(5)--(5)-(5)-(5)--(5)-(5)-(5)--(5)-(5)-(5)|

 "Surely satisfied..."
|--------------------------------------------------------------------------------------------------8---8---8-|
|-/12--12--12---10--10--10---9---9---9----9---9b10r9(p5)-------------------------------------------9---9---9-|
|-/x---x---x----x---x---x----x---x---x----x---x-------------10--10--10---12--12--12---9---9---9----5---5---5-|
|-/10--10--10---8---8---8----7---7---7----7---7b8r7(p5)-----x---x---x----x---x---x----x---x---x----7---7---7-|
|-(5)-(5)-(5)--(5)-(5)-(5)--(5)-(5)-(5)--(5)-(5)------------8---8---8----10--10--10---7---7---7----5---5---5-|
|-(5)-(5)-(5)--(5)-(5)-(5)--(5)-(5)-(5)--(5)-(5)-----------(5)-(5)-(5)--(5)-(5)-(5)--(5)-(5)-(5)--(5)-(5)-(5)|

 "I love myself, more than I ever have..."
|------------------------------------------------------------------------------------------------------------|
|--12--12--12---10--10--10---9---9---9----9---9b10r9(p5)-----------------------------------------------------|
|--x---x---x----x---x---x----x---x---x----x---x-------------10--10--10---10--10--10---9---9---9----9---9---9-|
|--10--10--10---8---8---8----7---7---7----7---7b8r7(p5)-----x---x---x----x---x---x----x---x---x----x---x---x-|
|-(5)-(5)-(5)--(5)-(5)-(5)--(5)-(5)-(5)--(5)-(5)------------8---8---8----8---8---8----7---7---7----7---7---7-|
|-(5)-(5)-(5)--(5)-(5)-(5)--(5)-(5)-(5)--(5)-(5)-----------(5)-(5)-(5)--(5)-(5)-(5)--(5)-(5)-(5)--(5)-(5)-(5)|

 Outro: "I HAVE LEARNED TO LOVE YOU TOO..." 
|--5-------|----8--------------------------------------------------------------|
|--5-------|----5--------------------------------------------------------------|
|--7-------|----7--------------------------------------------------------------|
|--5-------|----7--------------------------------------------------------------|
|--5-(x3)--|----5-(x8)---------------------------------------------------------|
|--5-------|----5--------------------------------------------------------------|

************************************

| /   slide up
| \   slide down
| h   hammer-on
| p   pull-off
| ~   vibrato
| +   harmonic
| x   Mute note
| b   Bend
| pb  Pre-bend
| br  Bend release
| pbr Pre-bend release
| brb Bend release bend

************************************
Добавлено: 07.07.2015
Другие материалы по этой песне:
  • Аккорды и текст

Страница создана 07.07.2015
http://primanota.ru/tiny-moving-parts/fair-trade-chords.htm
Привет, Гость.
Предлагаем пройти революционный курс по гитаре.
Подарок от PrimaNota.Ru, забирай!