PrimaNota.ru - самый крупный в мире бесплатный архив песенных текстов, аккордов, табулатур и нот


Tinashe - Looking 4 It - аккорды и текст, видео

Регистрация Запомнить меня
Войти через:  Facebook Google Twitter Vk Yandex Mail.ru

Tinashe - Looking 4 It - аккорды и текст, видео

Печатать
Просмотров: 69
Looking 4 It
Tinashe
-------------------------------------------------------------------------------
                             Looking 4 It by Tinashe
-------------------------------------------------------------------------------
Tabbed by: emily4011
E-mail: 

Tuning: Standard



The whole song is just Dm and Bb. You could also play the Bb like this (Gm7/F). 

e|---3------------------------------------------------------------------------|
B|---3------------------------------------------------------------------------|
G|---3------------------------------------------------------------------------|
D|---3------------------------------------------------------------------------|
A|---1------------------------------------------------------------------------|
E|---1------------------------------------------------------------------------|

OR you could even play Gm for the second chord a few times.
 You can switch between all 3 of those for your second chord as long as you keep
 Dm the same. This is a good song to just improvise on.


  


************************************

| /   slide up
| \   slide down
| h   hammer-on
| p   pull-off
| ~   vibrato
| +   harmonic
| x   Mute note
| b   Bend
| pb  Pre-bend
| br  Bend release
| pbr Pre-bend release
| brb Bend release bend

************************************
Добавлено: 23.12.2015
Другие материалы по этой песне:
  • Аккорды и текст

Страница создана 23.12.2015
http://primanota.ru/tinashe/looking-4-it-chords.htm
Привет, Гость.
Предлагаем пройти революционный курс по гитаре.
Подарок от PrimaNota.Ru, забирай!