PrimaNota.ru - самый крупный в мире бесплатный архив песенных текстов, аккордов, табулатур и нот


Tina Turner - Disco Inferno - текст песни, бас-таба, видео

Регистрация Запомнить меня
Войти через:  Facebook Google Twitter Vk Yandex Mail.ru

Tina Turner - Disco Inferno - текст песни, бас-таба, видео

Печатать
Просмотров: 112
Уроки эстрадного вокала в Санкт-Петербурге
Авторы: Leroy Green, Ron Kersey

DISCO INFERNO_Tina Turner Live


INTRO 
G|11-99-77---------------------|
D|------------99---------------|
A|------------------11-99-77---|
E|--------------------------9--|


VERSE
G|--------------------------------------|
D|------8------6-------------8--------6-|
A|-6--6--6--9-------6-----6----6---99---|
E|----------------9---------------------|

G|--------------------------------------|
D|-----8--------6----------8----5---6---|
A|6--6---6--9----------6------3----4---5|
E|-----------------9--------------------|


CHORUS
G|---------------------------------------------------------|
D|--6--6-5-3-3------------------3--------------------------|
A|-------------6--4--4-3----4-------6------6-----6---------|
E|------------------------6--------------------------------|

G|--------------------------------------------------------|
D|-6--6-5-3-3-------------------3-------------------------|
A|------------6-4---4--3----4------6-66--6-6---6--6-6--4-3|
E|------------------------6-------------------------------|


REPEAT VERSE x4
REPEAT CHORUS
REPEAT VERSE x4
REPEAT CHORUS


MIDDLE EIGHT
G|---------------------------------------------8-666-6555-33|
D|-------6--6---------33--6---------6-8---------------------|
A|4-44--4-----x4-44----------6--66-6------6---6-------------|
E|----------------------------------------------------------|

G|------------------------------------3-3-----------------3-3-------------------|
D|-----3-------------------6--------------6-4-4--4-4--4-3-----6---4-4--4-4--4--3|
A|4------6-4-6-4---4---6-----8-6-4-6--------------------------------------------|
E|------------------------------------------------------------------------------|


REPEAT VERSE x4
REPEAT CHORUS x2
REPEAT VERSE UNTIL END
Добавлено: 10.05.2016
Вам также может быть интересно:
Другие материалы по этой песне:
  • Аккорды и текст

Страница создана 09.07.2012
http://primanota.ru/tina-turner/disco-inferno-chords.htm
Привет, Гость.
Предлагаем пройти революционный курс по гитаре.
Подарок от PrimaNota.Ru, забирай!