PrimaNota.ru - самый крупный в мире бесплатный архив песенных текстов, аккордов, табулатур и нот


Tina Dico - The Other Side - аккорды и текст, видео

Регистрация Запомнить меня
Войти через:  Facebook Google Twitter Vk Yandex Mail.ru

Tina Dico - The Other Side - аккорды и текст, видео

Печатать
Просмотров: 75
Уроки эстрадного вокала в Санкт-Петербурге
The Other Side
Tina Dico
Tina Dico - The Other Side (acoustic)
-------------------------------------

I had to redo this tab because i've seen her playing it with a capo and some 
chords were not quite correct. So here's a better version:

Capo 4 (sometimes Capo 3)

C/G       332010       Am/F#   200210     D5    xx023x   D    xx0232
F         13321x       Am      x02210     E     022100


This song is quite simple and she plays it with a walking bass and adds
some bass runs here and there. The bass note is picked on count one and three
and on count two and four is a down- and upstroke. 

Verse
-----

  Am       Am       Am       Am/F#    Am/F#    G        G
e|--00--00|--00--00|--00--00|--00--00|--00--00|--33----|--33----|
B|--11--11|--11--11|--11--11|--11--11|--11--11|--00--00|--00--00|
G|--22--22|--22--22|--22--22|--22--22|--22--22|--00--00|--00--00|
D|--22--22|--22--22|--22--22|--000-00|--000-00|--000-00|--000-00|
A|0-------|0-------|0-------|--------|--------|--------|--------|
E|----0---|----0---|----0---|2-------|2-------|3-------|3-------|
    ^v^ ^v   ^v  ^v   ^v  ^v   ^v  ^v   ^v  ^v   ^v  ^v   ^v  ^v 
    I...   dream... night... worst... years... biting...pillow...

  F        F        Am       Am       F        F        C/G        
e|--------|--------|--00--00|--00--00|--------|--------|--00--00|
B|--11--11|--11--11|--11--11|--11--11|--11--11|--11--11|--11--11|
G|--22--22|--22--22|--22--22|--22--22|--22--22|--22--22|--00--00|
D|--33--33|--33--33|--22--22|--22--22|--33--33|--33--33|--22--22|
A|--333-33|--333-33|0-------|0-------|--333-33|--333-33|3-------|
E|1-------|1-------|----0---|----0---|1-------|1-------|----3---|
    ^v  ^v   ^v  ^v   ^v  ^v   ^v  ^v   ^v  ^v   ^v  ^v  ^v  ^v  
  waking...tears....knocking.door...  been...  life...Expectat...

  
  D5       E        E        E        E        
e|--------|--00--00|--00--00|--00--00|--00--00|  
B|--33--33|--00--00|--00--00|--00--00|--00--00|  
G|--22--22|--11--11|--11--11|--11--11|--11--11|  
D|0-00--00|--22--22|--22--22|--22--22|--22--22|  
A|----0---|--222-22|--222-22|--222-22|--222-22|  
E|--------|0-------|0-------|0-------|0-------|  
    ^v  ^v  ^v  ^v   ^v  ^v   ^v  ^v   ^v  ^v  
  on the...side                        ... On the other...
  
Chorus
------
  
  F        F        Am       Am       C/G      F        
e|--------|--------|--00--00|--00--00|--00--00|--------|
B|--11--11|--11--11|--11--11|--11--11|--11--11|--11--11|
G|--22--22|--22--22|--22--22|--22--22|--00--00|--22--22|
D|--33--33|--33--33|--22--22|--22--22|--22--22|--33--33|
A|--333-33|--333-33|0-------|0-------|3-------|--333-33|
E|1-------|1-------|----0---|----0---|----3---|1-------|
   ^v  ^v   ^v  ^v  ^v  ^v   ^v  ^v   ^v  ^v   ^v  ^v  
  side..    on..    side...         Expecting..on...    
  
  C/G      C/G      C/G      C/G      
e|--00--00|--00--00|--00--00|--00----|   
B|--11--11|--11--11|--11--11|--11----|   
G|--00--00|--00--00|--00--00|--00----|   
D|--22--22|--22--22|--22--22|--22----|    Run down A-String C->B->A
            No, there were no lights on the other side
                         Am    Am             F    F
            On the other side    On the other side
                      C/G               F            C/G C/G C/G C/G  --> Run down A-String C->B->A
            Yeah, the lights were off on the other side

Verse 4                 Am       Am
            Now, if the dream is right
                Am/F#              Am/F#
            And if I'm thinking clear
              G                     G              F            F
            I guess I should be thankful to have woken up right here
                Am                Am        C/G        C/G
            And not half-way up a ladder into an empty sky
                   D          D      F                F       F    F  F
            Not looking for a better place to live my life
                  C/G                      D5              E    E E E
            No, I think I'll just stay and live it on this side 

Chorus              F     F       Am    Am
            On this side    On this side
                      C/G                F            C/G
            I'll just stay and live my life on this side
            
            
-----------------------------------------------------------------------------------
Tabbed in November 2012.    Hope you enjoy it.  Joern
Send any corrections or comments to:    MCWZQQGXYUHK@spammotel.com
Добавлено: 15.11.2013
Другие материалы по этой песне:
  • Аккорды и текст

Страница создана 06.09.2013
http://primanota.ru/tina-dico/the-other-side-chords.htm
Привет, Гость.
Предлагаем пройти революционный курс по гитаре.
Подарок от PrimaNota.Ru, забирай!