PrimaNota.ru - самый крупный в мире бесплатный архив песенных текстов, аккордов, табулатур и нот


Tina Dico - Home - таба, видео

Регистрация Запомнить меня
Войти через:  Facebook Google Twitter Vk Yandex Mail.ru

Tina Dico - Home - таба, видео

Печатать
Просмотров: 72
Tina Dico - Home
by Havana86

DADGAD Tuning


D (000200)
G (555000)
F(333000)
Em(222000)
D#(111000)              
(I dont know the exact names of the chords, but it sounds good)

Intro/Interlude: (you have to listen to the song, to get the feeling for the timing...)
2x
D:----------------------------------/------0-------------------/
A:---------------------------------/---3--------3-------------/
G:-------2------2------2-----2----/----------2-------2----2--/
D:-------------------------------/--------------------------/
A:------------------------------/--------------------------/
D:---0------0------0-----0-----/-----------------------0--/



(Strumming)
D                 G
Lost in cheap delirium
F                    Em
Searching the neon lights
        D    
I move carefully   
D                   G
Sink in the city aquarium
F                   Em
Sing in the key of night
            D          
As they're watching me


                                                
D:--3---2--0-------------------------/-----0----0----0----0--------/
A:------------3---------------------/------0----0----0----0-------/
G:-------------------2--0----------/-------0----0----0----0------/
D:--------------------------3--0--/--3/5---5----5----5----5-----/
A:-------------------------------/-----------------------------/
D:------------------------------/--------5---55---55---55-----/
  Take me somewhere we can be a----lone

                                           
D:--2---3--0-------------------------/-----0----0----0----0-------/
A:------------3---------------------/------0----0----0----0------/
G:-------------------2--0----------/-------0----0----0----0-----/
D:--------------------------3--0--/--3/5---5----5----5----5----/
A:-------------------------------/----------------------------/
D:------------------------------/--------5---55---55---55----/

   Make me somewhere i can call a   home

        G                      F       D D# G F D   (Slide between the chords)   
'cause lately i've been losing on my own

D                   G
Wrapped in silent elegance
F                   Em
Beautifully broken down
      D
As illusions burst
D                         G
Too late to learn from experience
F                   Em
Too late to wonder how
     D
To finish first

                                                
D:--3---2--0-------------------------/-----0----0----0----0--------/
A:------------3---------------------/------0----0----0----0-------/
G:-------------------2--0----------/-------0----0----0----0------/
D:--------------------------3--0--/--3/5---5----5----5----5-----/
A:-------------------------------/-----------------------------/
D:------------------------------/--------5---55---55---55-----/
  Take me somewhere we can be a----lone

                                           
D:--2---3--0-------------------------/-----0----0----0----0-------/
A:------------3---------------------/------0----0----0----0------/
G:-------------------2--0----------/-------0----0----0----0-----/
D:--------------------------3--0--/--3/5---5----5----5----5----/
A:-------------------------------/----------------------------/
D:------------------------------/--------5---55---55---55----/

   Make me somewhere i can call a   home

        G                       F     D  G F Em D  (Slide between the chords)   
'cause lately i've been losing on my own


                                                
D:--3---2--0-------------------------/-----0----0----0----0--------/
A:------------3---------------------/------0----0----0----0-------/
G:-------------------2--0----------/-------0----0----0----0------/
D:--------------------------3--0--/--3/5---5----5----5----5-----/
A:-------------------------------/-----------------------------/
D:------------------------------/--------5---55---55---55-----/
  Take me somewhere we can be a----lone

                                           
D:--2---3--0-------------------------/-----0----0----0----0-------/
A:------------3---------------------/------0----0----0----0------/
G:-------------------2--0----------/-------0----0----0----0-----/
D:--------------------------3--0--/--3/5---5----5----5----5----/
A:-------------------------------/----------------------------/
D:------------------------------/--------5---55---55---55----/

   Make me somewhere i can call a   home
                        G   F  (D  D# G F) Repeat and fade out
3x Won't you take me home

Добавлено: 03.08.2015
Другие материалы по этой песне:
  • Аккорды и текст

Страница создана 03.08.2015
http://primanota.ru/tina-dico/home-chords.htm
Привет, Гость.
Предлагаем пройти революционный курс по гитаре.
Подарок от PrimaNota.Ru, забирай!