PrimaNota.ru - самый крупный в мире бесплатный архив песенных текстов, аккордов, табулатур и нот


Tina Dico - Back Where We Started - таба, видео

Регистрация Запомнить меня
Войти через:  Facebook Google Twitter Vk Yandex Mail.ru

Tina Dico - Back Where We Started - таба, видео

Печатать
Просмотров: 103
Уроки эстрадного вокала в Санкт-Петербурге
    _________________________
   / Tina Dickow            /  I always move into a wonderfully melancholic
  / Back Where We Started  /  trance when listening to this beautiful song!
 / Far                    /
/________________________/

 The Tuning:
This song is played in an unusual tuning: [D A D F# G# E] with capo on 2nd fret.
I have never seen this tuning anywhere else but this song. Thanks a ton to Fuxx
for figuring out this tuning!

--------------------------------------------------------------------------------



 Intro:
|-------0---------|-------0---------|-------0---------|-------0---------|
|-----------0-----|-----------0-----|-----------0-----|---------------0-|
|---------------3-|---------------3-|---------------3-|-------------3---|
|-----2-------2---|-----2-------2---|-----2-------2---|-----2-----------|
|-0---------------|-0---------------|-----------------|-----------------|
|-----------------|-----------------|-0---------------|-0---------------|

|-------0---------|-------0---------|-------0---------|-------0---------|
|-----------0-----|-----------0-----|-----------0-----|-----------------|
|---------------3-|---------------3-|---------------3-|-----------------|
|-----2-------2---|-----2-------2---|-----2-------2---|-----------------|
|-0---------------|-0---------------|-----------------|-----------------|
|-----------------|-----------------|-0---------------|-0---------------|



 Verse:
||--------0---------|-------0---------|-------0---------|-------0---------|
||o-----------0-----|-----------0-----|-----------0-----|-----------0-----|
||------3---------3-|-----3---------3-|---------------3-|-----------------|
||--0-----------0---|-0-----------0---|-----0-------0---|-----0-----------|
||o-----------------|-----------------|-2---------------|-2-----------2---|
||------------------|-----------------|-----------------|-----------------|

                                                                           3x
  |-------0---------|-------0---------|-------0---------|------------------||
  |-----------0-----|-----------0-----|-----------0-----|-----------------o||
  |---------------3-|-----------------|---------------3-|------------------||
  |-----------------|-----------------|-----2-------2---|------------------||
  |-----4-------4---|-----4-----------|-----------------|-----------------o||
  |-4---------------|-4-----------4\--|-0---------------|-0----------------||



 Pre-Chorus:
|-------0---------|-------0---------|-------0---------|-----------------|
|---------------0-|---------------0-|---------------1-|-----------------|
|-----------3-----|-----------3-----|-----------0-----|---2-------0-----|
|-----2-------2---|-----2-------2---|-----------------|-------2---------|
|-----------------|-----------------|-----------------|-----------------|
|-2---------------|-2---------------|-0---------------|-----------------|

|-------0---------|-------0---------|-------0---------|-------0---------|
|---------------0-|---------------0-|---------------0-|-----------------|
|-----------3-----|-----------3-----|-----------3-----|-----------------|
|-----2-------2---|-----2-------2---|-----2-------2---|-----------------|
|-----------------|-----------------|-----------------|-----------------|
|-2---------------|-2---------------|-0---------------|-0---------------|

|-------0---------|-------0---------|-------0---------|-------0---------|
|---------------2-|-----------2---3-|-----------3---2-|-----------2-----|
|-----------2-----|-----2-----------|-----2-----------|-----2---------0-|
|-----------------|-----------------|-----------------|-----------------|
|-4-----------4---|-4-----------4---|-4-----------4---|-4-----------4---|
|-----------------|-----------------|-----------------|-----------------|



 Chorus:
||--------0---------|-------0---------|-------0---------|-------0---------|
||o-----------0-----|-----------0-----|-----------0-----|-----------0-----|
||----------------3-|---------------3-|---------------3-|---------------3-|
||------2-------2---|-----2-------2---|-----2-------2---|-----2-------2---|
||o-----------------|-----------------|-----------------|-----------------|
||--0---------------|-2---------------|-0---------------|-2---------------|

  |-------0---------|-------0---------|-------0---------|-------0----------||
  |-----------0-----|-----------0-----|-----------0-----|-----------0-----o||
  |---------------3-|---------------3-|---------------3-|---------------3--||
  |-----2-------2---|-----2-------2---|-----------------|------------------||
  |-----------------|-----------------|-----4-------4---|-----4-------4---o||
  |-0---------------|-2---------------|-4---------------|-4----------------||


|-------0---------|-------0---------|-------0---------|-----------------|
|-----------0-----|-----------0-----|-----------0-----|---------------0-|
|---------------3-|---------------3-|---------------3-|-------------3---|
|-----2-------2---|-----2-------2---|-----2-------2---|-----------------|
|-----------------|-----------------|-----------------|-----------------|
|-0---------------|-0---------------|-0---------------|-0---------------|




 Da Capo (Repeat it from the top, then move on from here.)




 Piano enters:
||--------0---------|-------0---------|-------0---------|-------0----------||
||o---------------0-|-----------------|---------------0-|-----------------o||
||------------3-----|-----------3---0-|-----------3-----|---------------3--||
||------2-------2---|-----2-------2---|-----2-------2---|-----2-------2----||
||o-----------------|-----------------|-----------------|-----------------o||
||--2---------------|-2---------------|-0---------------|-0----------------||

|-------0---------|-------0---------|-------0---------|-------0---------|
|---------------2-|-----------2---3-|-----------3---2-|-----------2-----|
|-----------2-----|-----2-----------|-----2-----------|-----2---------0-|
|-----------------|-----------------|-----------------|-----------------|
|-4-----------4---|-4-----------4---|-4-----------4---|-4-----------4---|
|-----------------|-----------------|-----------------|-----------------|




 Chorus: Similar to previous; just cut the last line.




 Outro:
                                                                           5x
||--------0---------|-------0---------|-------0---------|-------0----------||
||o-----------0-----|-----------0-----|-----------0-----|-----------0-----o||
||----------------3-|---------------3-|---------------3-|---------------3--||
||------2-------2---|-----2-------2---|-----------------|------------------||
||o-----------------|-----------------|-----4-------4---|-----4-------4---o||
||--0---------------|-2---------------|-4---------------|-4----------------||

 ritardendo...
|-------0---------|-------0---------|-----------------|
|-----------0-----|-----------0-----|-----------------|
|---------------3-|---------------3-|-----------------|
|-----2-------2---|-----2-------2---|-----------------|
|-----------------|-----------------|-----------------|
|-0---------------|-2---------------|-4---------------|




 LYRICS
**********
It's cold when it's October here
so I guess I won't see you at my birthday this year
and who'd have thought a love like that
would wither and wash out as winter pulls near

I'm not gonna cry about it, no
I'm just gonna lie about it
your laughter filling my sails
As in fall the golden leaf must give in to the winds
Tthis here tale of love is somehow meant to end where it begins

So
Back where we started
Back where we started
and why don't we just leave it
No
Not broken hearted
Just back where we started
and why don't we just leave it at that, leave it at that ...

The summer asked no questions
and the wind found no excuse to abridge our story over
And nature is a faithless friend
and counting on her favours will make you sorry

I'm not gonna cry about you
it's not like I'll die without you
your laughter filling my sails
As in fall the golden leaf must give in to the winds
This here tale of love is somehow meant to end where it begins

So
Back where we started
Back where we started
and why don't we just leave it
No
Not broken hearted
Just back where we started
and why don't we just leave it at that, leave it at that ...


+--------------------------------------------------------------------------+
Jon Sebastian Frederiksen – 23rd /December /10
Just mail me at Maitinin@gmail.com with questions, comments and corrections!
Добавлено: 10.07.2012
Другие материалы по этой песне:

Страница создана 09.03.2012
http://primanota.ru/tina-dico/back-where-we-started-chords.htm
Привет, Гость.
Предлагаем пройти революционный курс по гитаре.
Подарок от PrimaNota.Ru, забирай!