PrimaNota.ru - самый крупный в мире бесплатный архив песенных текстов, аккордов, табулатур и нот


Tina Dickow - My Business - таба, видео

Регистрация Запомнить меня
Войти через:  Facebook Google Twitter Vk Yandex Mail.ru

Tina Dickow - My Business - таба, видео

Печатать
Просмотров: 62
My business
Tina Dickow
'Count to Ten'

Tabbed by: TT-Rocks
Email: thomas@thyregod.net

Tuning: Standard 
        Capo 3rd

into/main riff:
E----------------------------------------------------------------|
B-----0-----------------0--------2--------0-------2--------0-----|
G-------4----3h4p3--------1--------4--------4---3---3--------1---|
D--/6-----6--------4--2-----2--5-----5--6-----6-------4--2-----2-|
A----------------------------------------------------------------|
e----------------------------------------------------------------|

Pre-Chorus
E-------------------------------|
B--2-----2---------0-----0------|
G----3-----3---3-----1-----1--1-|
D-4----4-----4---2-----2----2---| x3
A-------------------------------|
e-------------------------------|

Bridge:
E--------------------------------------------------------------|
B-----0-----------------0--------0-------2--------0------0-----|
G-------4----3h4p3--------1--------4---3---3--------1------1---|
D--/6-----6--------4--2-----2--6-----6-------4--2-----2------2-|
A--------------------------------------------------------------|
e--------------------------------------------------------------|

Chorus:       
E--(4)-x--x--x-|  
B--(4)-4--7--6-|  
G---4--4--8--6-|  x2
D---6--4--8--6-|  
A---6--2--6--4-|  
e---4----------|  

Bridge:
E--------------------------------------------------------------|
B-----0-----------------0--------0-------2--------0------0-----|
G-------4----3h4p3--------1--------4---3---3--------1------1---|
D--/6-----6--------4--2-----2--6-----6-------4--2-----2------2-|
A--------------------------------------------------------------|
e--------------------------------------------------------------|

Chorus:       
E--(2)-x-|     E-(2)-x--|
B--(2)-0-|     B--3--9--|
G---2--1-|  x2 G--4--9--|
D---4--2-|     D--4--9--|
A---4--2-|     A--2--7--|
e---2--0-|     e--------|

Last chorus:
E--(4)-x--x--x--x--x-|  
B--(4)-4--7--4--7--6-|  
G---4--4--8--4--8--6-|
D---6--4--8--4--8--6-|  
A---6--2--6--2--6--4-|  
e---4----------------| 


ending:
E--------------------------------------------------------------|
B-----0-----------------0--------0-------2--------0------0-----|
G-------4----3h4p3--------1--------4---3---3--------1------1---|...
D--/6-----6--------4--2-----2--6-----6-------4--2-----2------2-|
A--------------------------------------------------------------|
e--------------------------------------------------------------|

There may be some minor flaws but it sounds quite right.

Добавлено: 19.06.2013
Другие материалы по этой песне:
  • Аккорды и текст

Страница создана 19.06.2013
http://primanota.ru/tina-dickow/my-business-chords.htm
Привет, Гость.
Предлагаем пройти революционный курс по гитаре.
Подарок от PrimaNota.Ru, забирай!