PrimaNota.ru - самый крупный в мире бесплатный архив песенных текстов, аккордов, табулатур и нот


Tina Dickow - An Open Ending - таба, видео

Регистрация Запомнить меня
Войти через:  Facebook Google Twitter Vk Yandex Mail.ru

Tina Dickow - An Open Ending - таба, видео

Печатать
Просмотров: 77
Авторы: Tina Dickow

Tina Dickow - An Open Ending

Capo on 6th Fret

Intro/Main Riff
e|-------------|-------------|-------------|-------------|
B|-------0-----|-------0-----|-------0-----|-------0-----|
G|---------1---|-1-------1---|---------1---|---------1---|
D|-----------2-|-----------2-|-4---------2-|-2---------2-|
A|--(2)--------|--(2)--------|--(2)--------|--(2)--------|
E|-0-----------|-------------|-------------|-------------|


e|-------------|-------------|----------|----------|
B|-------0-----|-------0-----|----0-----|----0-----|
G|---------1---|---------1---|------1---|------1---|
D|-----------2-|-1---------2-|--------2-|--------2-|
A|--(2)--------|--(2)--------|-4--------|-2--------|
E|-0-----------|-------------|----------|----------|


e|-------------|-------------|-------------|-------------|
B|-------0-----|-------0-----|-------0-----|-------0-----|
G|---------1---|-1-------1---|---------1---|---------1---|
D|-----------2-|-----------2-|-4---------2-|-2---------2-|
A|--(2)--------|--(2)--------|--(2)--------|--(2)--------|
E|-0-----------|-------------|-------------|-------------|


E|----------|-4--------|-2--------|-0--------|
B|----0-----|----0-----|----0-----|----0-----|
G|------1---|------1---|------1---|------1---|
D|--------2-|--------2-|--------2-|--------2-|
A|-4--------|-4--------|-4--------|-4--------|
E|----------|----------|----------|----------|

(played once per intro, twice in the first verse and once in the second verse)


Refrain

e|---------|-------|-------|-------|-------|-------|-------|-------|
B|-----0---|---0---|---0---|---0---|---0---|---0---|---0---|---0---|
G|-------1-|-----1-|-----1-|-----1-|-----1-|-----1-|-----1-|-----1-|
D|---------|-------|-------|-------|-------|-------|-------|-------|
A|---0-----|-0-----|-4-----|-4-----|-2-----|-2-----|-0-----|-0-----|
E|(4)------|-------|-------|-------|-------|-------|-------|-------|

|-------|-------|
|---0---|---0---|
|-----1-|-----1-|
|-------|-------|  whole chorus: 2x
|-0-----|-0-----|
|-------|-------|

Chorus

e|-------------|-------|-------|-------|-------|-------|-------|-------|
B|-(0)-----0---|---0---|---0---|---0---|---0---|---0---|---0---|---0---|
G|---(1)-----1-|-----1-|-----1-|-----1-|-----1-|-----1-|-----1-|-----1-|
D|-------------|-------|-------|-------|-------|-------|-------|-------| 5x
A|-------0-----|-0-----|-2-----|-2-----|-4-----|-4-----|-2-----|-2-----|
E|-------------|-------|-------|-------|-------|-------|-------|-------|


e|-------|-------|
B|---0---|---0---|
G|-----1-|-----1-|
D|-------|-------|
A|-2-----|-2-----|
E|-------|-------|

Outro

e|-7-7-7-7-|-4-4-4-4-|-7-7-7-7-|-4-4-4-4-|-4-4-4-4-|-4-4-4-4-|-4-4-4-4-|
B|-9-9-9-9-|-5-5-5-5-|-9-9-9-9-|-5-5-5-5-|-5-5-5-5-|-5-5-5-5-|-5-5-5-5-|
G|-9-9-9-9-|-6-6-6-6-|-9-9-9-9-|-6-6-6-6-|-6-6-6-6-|-6-6-6-6-|-6-6-6-6-|
D|-x-x-x-x-|-x-x-x-x-|-x-x-x-x-|-x-x-x-x-|-x-x-x-x-|-x-x-x-x-|-x-x-x-x-|
A|-x-x-x-x-|-x-x-x-x-|-x-x-x-x-|-x-x-x-x-|-x-x-x-x-|-x-x-x-x-|-x-x-x-x-|
E|-x-x-x-x-|-x-x-x-x-|-x-x-x-x-|-x-x-x-x-|-x-x-x-x-|-x-x-x-x-|-x-x-x-x-|

till fade out


_________________________________________________________________________

LYRICS


[Intro]


[Verse/Main Riff]
Tell mama you'll be okay
Tell her stay calm
Tell daddy it's much too late
To twist your arm


[Refrain]
It's time to go and find something that's yours
That no one can steal away
Yeah, it's time to open the doors
To your secret place


[Chorus]
There's no answer as big as the question
There's no victory as big as the lesson
You go on and you see where your detours will take you to
There's no power like understanding
There's no beginning like an open ending
You hold on, you don't stop to believe
If you follow through
You will learn what is good for you
Someday soon
You will know what is best for you


[Intro]


[Verse/Main Riff]
Tell mama, it'll be alright
Tell her have faith


[Refrain]
It's time to go and find something that'll last
And no one can lose or break
It's time to own up to the task
And go make your own mistakes


[Chorus]
There's no answer as big as the question
There's no victory as big as the lesson
You go and you see where your detours will take you to
There's no power like understanding
There's no beginning like an open ending
You hold on, you don't stop to believe
If you follow through
You will learn what is good for you
Yeah, someday soon
You will know what is best for you


[Outro]
Добавлено: 24.07.2013
Другие материалы по этой песне:
  • Аккорды и текст

Страница создана 24.07.2013
http://primanota.ru/tina-dickow/an-open-ending-chords.htm
Привет, Гость.
Предлагаем пройти революционный курс по гитаре.
Подарок от PrimaNota.Ru, забирай!