PrimaNota.ru - самый крупный в мире бесплатный архив песенных текстов, аккордов, табулатур и нот


Timothy Seth Avett As Darling - A Moment Of Clarity - таба, видео

Регистрация Запомнить меня
Войти через:  Facebook Google Twitter Vk Yandex Mail.ru

Timothy Seth Avett As Darling - A Moment Of Clarity - таба, видео

Печатать
Просмотров: 121
Уроки эстрадного вокала в Санкт-Петербурге
-------------------------------------------------------------------------------
             A Moment Of Clarity - Timothy Seth Avett As Darling
-------------------------------------------------------------------------------
Tabbed by: Jack Meyer

Tuning: Standard
Capo II
all frets relative to the capo

 e--10--10-----7\5--5------8~-----------------------7------8--7---5--3--/10~--|
 B--------------------------------7-------7-5-3-3/8----1/5--------------------|
 G----------------------0-----------0---9-------------------------------------|
 D----------0---------0---------------0-------------------------0-------------|
 A--10--10-----5\3--3------7~--------------------------3----------------------|
 E--------------------------------8-------------3-------------3---------/10~--|

 e--10----12-14-12~--7--8-9-10~--8-7-5-7-5-3-5-3-2/3--/10--\7---5----7--5--3--|
 B----12--------------8------------------------------------------0---------0--|
 G------12-------------7------------------------------------------0--------0--|
 D-----------------------------------------------------------------0-------0--|
 A--------------------------------------------------------------3----------2--|
 E--------------8~----------7~---5-----3-----2---0-------------------------3--|

 e--10--10-----7\5--5------8~-----------------------7------8--7---5--3--/10~--|
 B--------------------------------7-------7-5-3-3/8----1/5--------------------|
 G----------------------0-----------0---9-------------------------------------|
 D----------0---------0---------------0-------------------------0-------------|
 A--10--10-----5\3--3------7~--------------------------3----------------------|
 E--------------------------------8-------------3-------------3---------/10~--|

 e--10----12-14-12~--7--8-9-10~--8-7-5-7-5-3-5-3---|
 B----12--------------8----------------------------|
 G------12-------------7---------------------------|
 D-------------------------------------------------|
 A-------------------------------------------------|
 E--------------8~----------7~---5-----3-----2-----|

 e--1/3--/10--\7---5--------7---5-----3------------|
 B-------------------0--------5---3---0------------|
 G--2/4--/11-----------0--------------0------------|
 D-----------------------0------------0------------|
 A-----------------3------------------2------------|
 E--0---------------------------------3------------|

 e--3-----------------------------------0--|
 B--3--10-8-7-8-8-7-5-7-6-5-3-5-6/8-5-3-1--|
 G--4-----------------------------------0--|
 D--3-----------------------------------2--|   X2 (played faster the second time)
 A--5---------7---------------3---------3--|
 E--3--7--------5-----5-3-----------3------|

 e--------5-7-8-10--7-10-12~----5----5----------|
 B------7-----------------------5----7----------|
 G----7-------------------------5----7----------|
 D--0---------------------------7----0----------|
 A------------------------------0---------------|
 E---------------7--------8~--------------------|

 e--10--10-----7\5--5------8~-----------------------7------8--7---5--3--/10~--|
 B--------------------------------7-------7-5-3-3/8----1/5--------------------|
 G----------------------0-----------0---9-------------------------------------|
 D----------0---------0---------------0-------------------------0-------------|
 A--10--10-----5\3--3------7~--------------------------3----------------------|
 E--------------------------------8-------------3-------------3---------/10~--|

 e--10----12-14-12~--7--8-9-10~--8-7-5-7-5-3-5-3---|
 B----12--------------8----------------------------|
 G------12-------------7---------------------------|
 D-------------------------------------------------|
 A-------------------------------------------------|
 E--------------8~----------7~---5-----3-----2-----|

 e--1/3--/10--\7---5--------7-----5-------3------------|
 B-------------------0--------5-----3-----0------------|
 G--2/4--/11-----------0--------7-----3---0------------|
 D-----------------------0----------------0------------|
 A-----------------3----------------------2------------|
 E--0-------------------------------------3------------|


This song is tabbed out on avettbrotherstabs.com, but there are a few mistakes and its a little
harder to read. So hopefully this version is more helpful.


************************************

| /   slide up
| \   slide down
| ~   let ring

************************************
Добавлено: 20.05.2016
Другие материалы по этой песне:
  • Аккорды и текст

Страница создана 20.05.2016
http://primanota.ru/timothy-seth-avett-as-darling/moment-of-clarity-chords.htm
Привет, Гость.
Предлагаем пройти революционный курс по гитаре.
Подарок от PrimaNota.Ru, забирай!