PrimaNota.ru - самый крупный в мире бесплатный архив песенных текстов, аккордов, табулатур и нот


Timothy Seth Avett As Darling - A Fine Melody - таба, видео

Регистрация Запомнить меня
Войти через:  Facebook Google Twitter Vk Yandex Mail.ru

Timothy Seth Avett As Darling - A Fine Melody - таба, видео

Печатать
Просмотров: 88
-------------------------------------------------------------------------------
               A Fine Melody - Timothy Seth Avett As Darling
-------------------------------------------------------------------------------
Tabbed by: Jack Meyer

Tuning: CGCGCE
Capo: 5th Fret

Video: https://www.youtube.com/watch?v=Hbrgu9qE-1E

In the video, Seth is playing with capo on 3rd fret, so he using DADADF# tuning, which is a lot
of tension on the B and e strings. The CGCGCE tuning will keep you from breaking strings
and its also the tuning he uses on Souls like the Wheels and Bring Your Love to Me


Intro
e|---------------------------------------------------------------------------|
C|-2~---0--4--------2~---0--4--------2~---0--4--------2~---0--5--------------|
G|-----------0----------------0----------------0----------------0------------|
C|-------------0----------------0----------------0----------------0----------|
G|-0----------------0----------------0-------2--------2-------3--------------|
C|---------0----------------0------------------------------------------------|

e|-----0---------------------------------------------------------------------|
C|-0h2---2p0-----------------------------------------------------------------|
G|---------------------------------------------------------------------------|
C|-------------------0--2/4\2---0h2--0~--------------------------------------|
G|---------------0h2----0------------0~--------------------------------------|
C|------------0----------------------0~--------------------------------------|


Verse
Chords: Not sure on the chord names because of the odd tuning, I'll just call them C, F, D, and Eb

     C             F             D             Eb
e|---0---|    e|---0---|    e|-------|    e|-------|
C|---2---|    C|---0---|    C|---0---|    C|---0---|
G|---0---|    G|---0---|    G|---0---|    G|---0---|
C|---2---|    C|---0---|    C|---4---|    C|---5---|
G|---0---|    G|---0---|    G|---2---|    G|---3---|
C|-------|    C|---0---|    C|-------|    C|-------|

C                   F
I will never be the same
C    F   C        D    
As I was when you knew me
C    F    C     F
That boy, he is dead
C         D
Killed in battle
C    F   C        F
In a war that was fought
C           D
Here in the winter
C       F
On your porch

C          F
Make me believe
C        F
That you still
C     D
Still love me
C        F   C     F
Like you did years ago
C        D
When you knew me
C        Eb
When you knew me

Riff
e|-------------------------------0-0---0-------|
C|-------------------------------0-0---0-------|
G|--------------------------4-4--5-5---5-------| x3
C|------0-2--2h4--2--0------2-2--4-4---4-------|
G|--0-2-----------------0---4-4--5-----5-------|
C|-------------------------------0---0-0-------|

e|-------------------------------3-------3p0-------5---7---3-----------------|
C|-------------------------------0-------2---------0---0---0-----------------|
G|--------------------------4-4--0-------0---------7---9---5-----------------|
C|------0-2--2h4--2--0------2-2--0-------0---------0---0---0-----------------|
G|--0-2-----------------0---4-4--0-------0---------0---0---0-----------------|
C|-------------------------------0-------0---------0---0---0-----------------|
                             -->|                           |<--    
                           {Listen to song for strumming pattern}     

e|--0-------0--------5---7---3----|
C|--2-------2/4------0---0---0----|
G|--0-------0--------7---5---5----|
C|--0-------0--------0---0---0----|
G|--0-------0--------0---0---0----|
C|--0-------0--------0---0---0----|
    {Listen to song for strumming pattern}

C           F      C   F
I watch the planes fly away
C         D
Like your memory
C       F    C     F
Landing hard in my head 
C     D
On my pillow

        C                   F
Well my life has changed so much
C          F
But you're such
C      D
A fine memory
       C                   F
And my song has changed so much
C          F 
But you're such
C      D
A fine melody

C           Eb
Of course I love you
C       F
Okay, I love you
C          D
You know I love you
C           F
Of course I love you

(Repeat the Riff)

C           F      C   F    C         D        
I watch the planes fly away like your memory


************************************

| /   slide up
| \   slide down
| h   hammer-on
| p   pull-off
| ~   vibrato

************************************
Добавлено: 20.05.2016
Вам также может быть интересно:
Другие материалы по этой песне:
  • Аккорды и текст

Страница создана 20.05.2016
http://primanota.ru/timothy-seth-avett-as-darling/fine-melody-chords.htm
Привет, Гость.
Предлагаем пройти революционный курс по гитаре.
Подарок от PrimaNota.Ru, забирай!