PrimaNota.ru - самый крупный в мире бесплатный архив песенных текстов, аккордов, табулатур и нот


Timothy Seth Avett As Darling - Country Is - аккорды и текст, видео

Регистрация Запомнить меня
Войти через:  Facebook Google Twitter Vk Yandex Mail.ru

Timothy Seth Avett As Darling - Country Is - аккорды и текст, видео

Печатать
Просмотров: 146
Country Is
Timothy Seth Avett As Darling
Country Is 
Originally By Tom T. Hall
Covered By Seth Avett
https://www.youtube.com/watch?v=DEr5JjQZgJU'

CAPO 5th FRET



Intro 


-------------------------------------------------------------------0-----3--------------------------------
-------------------------------------------------------------------1-----0--------------------------------
-----0-2--2/4/2-0--2/4/2-0-----------------------0-2-2/4/2-0-------0-----0--------------------------------
-0-2------------------------2/4/2---0-0-----0-2--------------------2-----0--------------------------------
-------------------------------------------------------------------3-----2--------------------------------
-------------------------------------------------------------------0-----3--------------------------------


Verse- Pretty much just G and C back and forth ending on D, with a hammer on transition from G to C


    G           C              G         C             G                         D  
----3--------------------------3-----------------------3--3-3-3------3--3-3-3----2--2-2-2----2--2-2-2---
----0-----------1----1-1-1-----0---------1---1-1-1-----0--0-0-0------0--0-0-0----3--3-3-3----3--3-3-3----
----0-----------0----0-0-0-----0---------0---0-0-0-----0--0-0-0------0--0-0-0----2--2-2-2----2--2-2-2----
----0-----------2----2-2-2-----0---------2---2-2-2-----0--0-0-0------0--0-0-0--0-----------0------------
----2----0h2--3-3----3-3-3-----2---0h2-3-3---3-3-3-----2--2-2-2------2--2-2-2---------------------------
-3--3--3--------------------3--3-3------------------3--3--3-3-3---3--3--3-3-3----------------------------


        G  C               G         C              G                       D   
Country is sittin' on the back porch    listen to the whippoorwills late in the day
        G  C               G      C              G              D         G
Country is mindin' your business     helpin' a stranger if he comes your way
        G  C               G    C              G                     D   
Country is livin' in the city      knowin' your people knowin' your kind
        G  C          G       C          G  D            G
Country is what you make it      country is all in your mind


-------------------------------------------------------------------0-----3--------------------------------
-------------------------------------------------------------------1-----0--------------------------------
-----0-2--2/4/2-0--2/4/2-0-----------------------0-2-2/4/2-0-------0-----0--------------------------------
-0-2------------------------2/4/2---0-0-----0-2--------------------2-----0--------------------------------
-------------------------------------------------------------------3-----2--------------------------------
-------------------------------------------------------------------0-----3--------------------------------


        G  C               G         C              G                       D   
Country is workin' for a living     thinkin' your own thoughts lovin' your town
        G  C               G      C              G          D                  G
Country is teachin' your children    find out what's right    and stand your ground
        G  C           G          C                G                   D   
Country is havin' the good times     listen to the music singing your part
        G  C                 G       C        G   D              G
Country is walkin' in the moonlight   country is    all in your heart



-------------------------------------------------------------------0-----3--------------------------------
-------------------------------------------------------------------1-----0--------------------------------
-----0-2--2/4/2-0--2/4/2-0-----------------------0-2-2/4/2-0-------0-----0--------------------------------
-0-2------------------------2/4/2---0-0-----0-2--------------------2-----0--------------------------------
-------------------------------------------------------------------3-----2--------------------------------
-------------------------------------------------------------------0-----3--------------------------------
Добавлено: 21.04.2015
Другие материалы по этой песне:
  • Аккорды и текст

Страница создана 21.04.2015
http://primanota.ru/timothy-seth-avett-as-darling/country-is-chords.htm
Привет, Гость.
Предлагаем пройти революционный курс по гитаре.
Подарок от PrimaNota.Ru, забирай!