PrimaNota.ru - самый крупный в мире бесплатный архив песенных текстов, аккордов, табулатур и нот


Timoria - Verso Oriente - таба, видео

Регистрация Запомнить меня
Войти через:  Facebook Google Twitter Vk Yandex Mail.ru

Timoria - Verso Oriente - таба, видео

Печатать
Просмотров: 76
Questa non e' la solita versione che ho fatto girare fino ad adesso.
L'ho quasi completamente riscritta per renderla piu' fedele
all'originale, aspetto i vostri commenti. Non e' ancora sul sito.


VERSO ORIENTE
Dall'album: 'Viaggio senza vento'
Parole & musica: Omar Pedrini

Trascrizione: Tigers  tiger5@iname.com>, ma tutto il merito va a
              Luca Bossini che me l'ha insegnata; grazie Luca!

Questa ed altre canzoni le trovate sul mio sito:
http://members.xoom.it/tigers

27.07.1999: corrette quasi tutte le TAB e un pochino anche gli
accordi,
            ora dovrebbe essere piu' fedele all'originale. Mancano
ancora
            la parte finale con l'elettrica e l'ultima strofa dove
sale di
            tono.

N.B Gli accordi sono in notazione internazionale. I corrispondenti
italiani
sono come segue:

C = DO
D = RE
E = MI
F = FA
G = SOL
A = LA
B = SI

NOTA: Trascrivere, mettere insieme e portare su Internet questa
canzone
mi e' costato tempo e fatica: non dimenticate di citare il mio nome e
quello
di Luca. Grazie. :)

Contribuite ad aumentare il numero di canzoni italiane disponibili
sulla rete, su  e su Amosfree!!!
Visitate e contribuite al newsgroup it.arti.musica.spartiti

Legenda per la tablatura:

/ o \ = slide (glissato)
  h   = hammer-on
  p   = pull-off

Consigli e commenti: usate le seguenti diteggiature per gli accordi e
su di
essi arpeggiate le note indicate nella tab:

    D: x00232
   D4: x00233
Dsus2: x00230
  E/D: xx0454
 E4/D: xx0455
   E4: 022200
   E9: 022103
    C: 032013
    G: 320033
  G/B: x20003

Ho indicato solo la prima volta tutte le variazioni sull'accordo di
base
(le quarte e le none), ma si ripetono praticamente uguali per tutta la
canzone.
Ho anche fatto un file Guitare Pro della canzone, che dovrebbe dare
un'idea un po' piu' precisa su come suonarla, se siete interessati
scrivetemi o cercatela sul mio sito: http://members.xoom.it/tigers

[Pre-intro]
[Acustica]

e|----------------------|----------------------|
B|----------------------|----------------------|
G|--7----6----9------7--|----6----6--6------6--|
D|--0----0----0------0--|----0----0--0------0--|
A|----------------------|----------------------|
E|----------------------|----------------------|

----------------------|---------------------|
----------------------|---------------------|
--6------7--7------9--|----7----6--6--------|
--0------0--0------0--|----0----0--0--------|
----------------------|---------------------|
----------------------|---------------------|

----------------------|----------------------|
----------------------|----------------------|
--7----6----9------7--|----6----6--6------6--|
--0----0----0------0--|----0----0--0------0--|
----------------------|----------------------|
----------------------|----------------------|

[Intro]

    D                      Dsus4     Dsus2
|-------------2----2----|--3p-2------0h-2-------|
|---3---------3----3----|--3---------3-------3/-|
|*-------2--------------|-----------------------|
|*--0-------------------|-----------------------|
|-----------------------|-----------------------|
|-----------------------|-----------------------|

  E/D       Esus4/D      E/D
------------5p-4------|--0------0----0-------|
--5---------5--5------|--5------5----5-------|
---------4------------|---------------------*|
--0-------------------|---------------------*|
----------------------|----------------------|
----------------------|----------------------|

[Strofe]

Ciao, citta'...

   D         D4 D         Dsus2            D
-------------3p-2------|--0----0--0--0--0--2----|
---3---------3--3------|--3----3--3--3--3--3----|
*---------2------------|------------------------|
*--0-------------------|------------------------|
-----------------------|------------------------|
-----------------------|------------------------|

  G
--3--------3--------3--|------------3----------|
--------------3--------|----3----------3-------|
-----------------0-----|-------0----------0----|
-----------------------|-----------------------|
-----------------------|-----------------------|
--3--------------------|-----------------------|

  C                       G/B       G
------------3--3-------|------------3----------|
--1------1--------1----|--0------0-----0-------|
-----------------------|------------------0----|
-----------------------|-----------------------|
--3------3--3--3--3----|--2------2-------------|
-----------------------|-----------------------|

  D         D4 D         Dsus2
------------3p-2------|--0----0--0--0--0--0----|
--3---------3--3------|--3----3--3--3--3--3----|
---------2------------|------------------------|
--0-------------------|------------------------|
----------------------|------------------------|
----------------------|------------------------|

  D         D4 D         Dsus2            D
------------3p-2------|--0----0--0--0--0--2----|
--3---------3--3------|--3----3--3--3--3--3----|
---------2------------|------------------------|
--0-------------------|------------------------|
----------------------|------------------------|
----------------------|------------------------|

  G
--3--------3--------3--|------------3----------|
--------------3--------|----3----------3-------|
-----------------0-----|-------0----------0----|
-----------------------|-----------------------|
-----------------------|-----------------------|
--3--------------------|-----------------------|

  C
-----------3--------3--|------------3----------|
--1-----------1--------|----1----------1-------|
-----------------0-----|-------0----------0----|
-----------------------|-----------------------|
--3--------------------|-----------------------|
-----------------------|-----------------------|

  D         D4 D         Dsus2
------------3p-2------|--0----0--0--0--0--0-----|
--3---------3--3------|--3----3--3--3--3--3-----|
---------2------------|------------------------*|
--0-------------------|------------------------*|
----------------------|-------------------------|
----------------------|-------------------------|

[Ritornello]

E vado  via...
   Bm
|---2--------2--------2--|------------2--2--0----|
|---------------3--------|----3------------------|
|*-----------------4-----|-------4---------------|
|*-----------------------|-----------------------|
|---2--------------------|------------2--2--0----|
|------------------------|-----------------------|

  G
--3--------3--------3--|------------3----------|
--3-----------3--------|----3----------3-------|
-----------------4-----|-------4----------4----|
-----------------------|-----------------------|
--2--------------------|-----------------------|
-----------------------|-----------------------|

  D         D4 D         Dsus2            D
------------3p-2------|--0----0--0--0--0--2----|
--3---------3--3------|--3----3--3--3--3--3----|
---------2------------|------------------------|
--0-------------------|------------------------|
----------------------|------------------------|
----------------------|------------------------|

  C
-----------3--------3--|------------3-----------|
--1-----------1--------|----1----------1--------|
-----------------0-----|-------0----------0----*|
-----------------------|-----------------------*|
--3--------------------|------------------------|
-----------------------|------------------------|


[Intro]

| D | D4 D2 | E/D | E4/D | E/D |


D   D4 D9    G            C   G/B
Ciao      citta', come va?
       D      D4  D9
Sembri bella ora che
D D4 D9   G          C
va_____do via, visto che
     D D4     D9
perdonare non so.


Lei e' tua,
dille che non si puo' buttar via.

Gente senza cuore
per un finto amore in un auto blu...
Dille che lei vale molto di piu'.

  Bm        G
E vado via, vado via.
          D                 C
Prendo il largo, nessuno mi sentira'.

Bm          G
Vado via, e insieme a me
      D                        C
verso oriente c'e' il sole che nasce la',
    D
che nasce la', oooooo.

E saro' acqua che
si disseta da se'.
Io, io e me
vento che si rincorre finche'
   Bm        G
io dormiro', libero
     D
e al risveglio
        C
il sole riscaldera',
 Bm       G
scaldera' ancora un po',
  D                        C               D          E E4 D D9 E E4
nudo il corpo che il vento rivestira', si' rivestira'

(sale di un tono)
(chitarra con overdrive)

E  E4  A
lei e' tua,
      D D9  E          E4
dille che non si puo' buttar via
E     A         D
cosi' io, dille che
E
vale molto di piu',
vale molto di piu',
vale molto di piu',
molto di piu',
molto di piu', vali molto di piu'


--
Ciao, Tigers
http://members.xoom.it/tigers
IRC AzzurraNet: #spartiti
NG: it.arti.musica.spartiti
E-mail: tiger5@iname.com
+-+-+-+-+-+-+-+-+-+-+-+-+-+-+-+-+-+-+-+-+-+
Chiosa  di  O'Toole alla legge di Murphy:
Murphy era un ottimista.




     
Добавлено: 03.10.2013
Другие материалы по этой песне:
  • Аккорды и текст

Страница создана 03.10.2013
http://primanota.ru/timoria/verso-oriente-chords.htm
Привет, Гость.
Предлагаем пройти революционный курс по гитаре.
Подарок от PrimaNota.Ru, забирай!