PrimaNota.ru - самый крупный в мире бесплатный архив песенных текстов, аккордов, табулатур и нот


Timoria - Sangue Impazzito - аккорды и текст, таба, видео

Регистрация Запомнить меня
Войти через:  Facebook Google Twitter Vk Yandex Mail.ru

Timoria - Sangue Impazzito - аккорды и текст, таба, видео

Печатать
Просмотров: 78
Sangue Impazzito
Timoria
		   N.B Play each thirty-second note with hammer-on or pull-off (depending
on the situation)

 -=1/32

INTRO (Acoustic guitar)

  Bm                               Bm
  v       v       v       v        v       v       v       v
e:0---------------2-----------2---|0---------------2-------2--0----|
B:------0-----3p0-------3---------|------0-----3p0---------3--3--3-|
G:--------4---------------4-------|--------4---------------------4-|
D:--------------------------------|--------------------------------|
A:2---------------2---------------|2---------------2---------------|
E:--------------------------------|--------------------------------|
                                                           Triplet



  G                                A7/4            A7
  v       v       v       v        v       v       v       v
e:------0---------------0---------|------0-------------------------|
B:3-----------0---0-----------0---|3-----------2-0-2-------232---2-|
G:----0---------0-----0---------0-|----0---------------0-------4---|
D:--0---------------0-------------|--2---------------2---2---------|
A:--------------------------------|0---------------0---------------|
E:3---------------3---------------|--------------------------------|




  Bm              Bm
  v       v       v       v
e:------0-------------------------|
B:------------0-0h20--------------|
G:4---4---------------------------|
D:--4-----------------------------|
A:2-------------------------------|
E:--------------------------------|


STROFA 1 (Acoustic guitar)

  Bm                               Bm
  v       v       v       v        v       v       v       v
e:0---------------2-----------2---|0---------------2-------2--0----|
B:------0-----3p0-------3---------|------0-----3p0---------3--3--3-|
G:--------4---------------4-------|--------4---------------------4-|
D:--------------------------------|--------------------------------|
A:2---------------2---------------|2---------------2---------------|
E:--------------------------------|--------------------------------|
                Triplet



  G                                A7/4            A7
  v       v       v       v        v       v       v       v
e:--------------------------------|--------------------------------|
B:------3---------------3---------|------3---------------2---------|
G:----0-----0---0-----0-----0---0-|----0-----0---0-----0-----0---0-|
D:--0---------0-----0---------0---|--2---------2-----2---------2---|
A:--------------------------------|0---------------0---------------|
E:3---------------3---------------|--------------------------------|




  Bm             Bm
  v       v       v       v
e:------0-------------------------|
B:----------0---0-----------------|
G:----4-------4---4---------------|
D:--4-----------------------------|
A:2-------------------------------|
E:--------------------------------|




  Bm                               Bm
  v       v       v       v        v       v       v       v
e:----------------2---------------|----------------2-------2--0----|
B:------3-------------------------|------3-----------------3--3--3-|
G:----4-----4---4-----4-----4---4-|----4-----4---4---------------4-|
D:--4---------4---------4-----4---|--4---------4-------------------|
A:2-------------------------------|2-------------------------------|
E:--------------------------------|--------------------------------|
          Triplet        Triplet



  G                                A7/4            A7
  v       v       v       v        v       v       v       v
e:--------------------------------|--------------------------------|
B:------3---------------3---------|------3---------------2---------|
G:----0-----0---0-----0-----0---0-|----2-----2---2-----0-----0---0-|
D:--0---------0-----0---------0---|--2---------2-----2---------2---|
A:--------------------------------|0---------------0---------------|
E:3---------------3---------------|--------------------------------|




  Bm             Bm               A              A7
  v       v       v       v        v       v       v       v
e:------0---------------------0---|----------------------0---------|
B:----------0---0-------------3---|------3-------------------------|
G:----4-------4---4---------------|----2-----2---2-----0-----0---0-|
D:--4-----------------------------|--2---------2-----2---------2---|
A:2-------------------------------|0---------------0---------------|
E:--------------------------------|--------------------------------|





  A9              A                Bm             Bm
  v       v       v       v        v       v       v       v
e:------0-------------------------|------0---------------2---------|
B:----------------------2---------|--------------------------------|
G:----2-----2---2-----2-----2---2-|----4-----4---4-----4-----4---4-|
D:--2---------2-----2---------2---|--4---------4-----4---------4---|
A:0---------------0---------------|2---------------2---------------|
E:--------------------------------|--------------------------------|




  A              A7               A9              A
  v       v       v       v        v       v       v       v
e:----------------------0---------|------0-------------------------|
B:------3-------------------------|----------------------2---------|
G:----2-----2---2-----0-----0---0-|----2-----2---2-----2-----2---2-|
D:--2---------2-----2---------2---|--2---------2-----2---------2---|
A:0---------------0---------------|0---------------0---------------|
E:--------------------------------|--------------------------------|




  Bm              Bm7/A            G7+
  v       v       v       v        v       v       v       v
e:------2---------------2---------|--------------------------------|
B:--------------------------------|--------------------------------|
G:----4-----4---4-----2-----2---2-|--------------------------------|
D:--4---------4-----0---------0---|--------------------------------|
A:2---------------0---------------|--------------------------------|
E:--------------------------------|3-------------------------------|




  A               G/A             A      A
  v       v       v       v        v       v       v       v
e:------0---------------0---------|--------------------------------|
B:------------2-0-2---------------|------0---------3-------2-------|
G:----2---------------2-----2---2-|----0-----0---0---2---2---2---2-|
D:--2---------------2---------2---|--0---------0-------2-------2---|
A:0---------------0---------------|0---------------0-------0-------|
E:--------------------------------|--------------------------------|

First time:
  Bm               G/A               G9             G7+
  v       v       v       v        v       v       v       v
|-------2---------------3---------|------5---------------2----------||
|-----------3---3-----------3---3-|----------3---3-----------0---0--||
|*----4-------4-------4-------4---|----4-------4-------0-------0---*||
|*--4---------------5-------------|--3-----------------------------*||
|-2---------------0---------------|------------------2--------------||
|---------------------------------|3---------------3----------------||

Second time:
| Bm   Sim7/A | Sol7+   A | (4 v.)
| Bm   Sim7/A | Sol |

  A7/4           A7     G/A     A       G/A     A
  v       v       v       v        v       v       v       v
e:------0---------------0---------|--------------------------------|
B:3-----------2-0-2---------------|0-------2-------3---------------|
G:--0-----------------0-----0---0-|--0---0---2---2---0---0---------|
D:----2-------------2---------2---|----0-------2-------0-----------|
A:0---------------0---------------|0-------0-------0---------------|
E:--------------------------------|--------------------------------|

GUITAR SOLO:
(I suggest to listen to the tape for a better playing)

     Bm            Bm7              G7+               A
E||------------------------------|--------------------------------|
B||------------------------------|--------------------------------|
G||------------------------------|--------------------------------|
D||------------------------------|---------------------------7-9--|
A||--2/4--4-4/5--5-5/7--7-7/9--9-|--10-----9h10h12-10-9----9------|
E||------------------------------|--------------------------------|


  Bm           Bm7            G7+             A
---------------------------|------------------------------------------|
---------------------------|------------------------------------------|
-----------7-9b----9b--7h9p|--7---7h9p7---7h9p7-7h9p7-7h9p7-7h9p7-7h9p|
--9------9-----------------|------------------------------------------|
---------------------------|------------------------------------------|
---------------------------|------------------------------------------|


  Bm            Bm7            G7+      A
----------------------------|-------------------|
----------------------------|-------------------|
--7-6h7p6\4-----------------|-------------------|
--------------------9-7---7-|--9b---------------|
------------------------9---|-------------------|
----------------------------|-------------------|


  Bm          Bm7                  G7+         A
--------------------------------|------------------14-----14-----|
--10b---12b---13b---12b-10b-12b-|--10b---12b---13b----13b-----13b|
--------------------------------|--------------------------------|
--------------------------------|--------------------------------|
--------------------------------|--------------------------------|
--------------------------------|--------------------------------|


  Bm                 Bm7                    G7+         A
-----------------------------------------|------------------------|
--13b----14h15p14-12-10------10-12-10-12-|--12b------12-12--------|
--------------------------11-------------|------------------------|
-----------------------------------------|------------------------|
-----------------------------------------|------------------------|
-----------------------------------------|------------------------|


  Bm                             Bm7
-------------------------------------7h9h10p9p7h9h10p9p7h9h10p9p|
----------------------------------------------------------------|
------------------------9------9-11-----------------------------|
---------9-11------9-11---9-11----------------------------------|
----9-12------9-12----------------------------------------------|
----------------------------------------------------------------|


  G7+                               A
--7h9h10p9p7h9h10p9p7h9h10p9p7h9h10-12b-12b-12b-12b-|
----------------------------------------------------|
----------------------------------------------------|
----------------------------------------------------|
----------------------------------------------------|
----------------------------------------------------|


  Bm                        Bm7
--12b-----12b12b12b12b12b12b12-12-12-12-12-12-12-12-12-12-12-12-12-12-12-12-12--

--------------------------------------------------------------------------------

--------------------------------------------------------------------------------

--------------------------------------------------------------------------------

--------------------------------------------------------------------------------

--------------------------------------------------------------------------------



  G
--10h12p10\7---------------||
---------------------------||
---------------------------||
---------------------------||
---------------------------||
---------------------------||     
Добавлено: 06.11.2013
Другие материалы по этой песне:

Страница создана 11.03.2012
http://primanota.ru/timoria/sangue-impazzito-chords.htm
Привет, Гость.
Предлагаем пройти революционный курс по гитаре.
Подарок от PrimaNota.Ru, забирай!