PrimaNota.ru - самый крупный в мире бесплатный архив песенных текстов, аккордов, табулатур и нот


Timoria - Jugendflucht - аккорды и текст, видео

Регистрация Запомнить меня
Войти через:  Facebook Google Twitter Vk Yandex Mail.ru

Timoria - Jugendflucht - аккорды и текст, видео

Печатать
Просмотров: 86
Jugendflucht
Timoria
		   Timoria
Jugendflucht
by andrea88

Intro Tastiere

E poi la chitarra subito dopo fa questo arpeggio: ripeterlo due volte

E-----------------------------------------------------------------
B---------------------5-------------------------------------------
G----------------6------------------------------3-----------------
D------------6-----------------------------4----------------------
A-----4--------------------------------4--------------------------
E-----------------------------2-----------------------------------

E-------------------------------------------------------------------------
B---------------------5---------------------------------------------------
G----------------6---------------------4-----------------------------5----
D------------6----------------------4--------------------------4----------
A-----4---------------------2-----------------------------4---------------
E-------------------------------------------------------------2-----------------------------

Bm         Fa#m      Sol           Em        A
E mi ritrovo qui, la strada d'ombra è la mia via
Bm         Fa#m      Sol           Em        A
c'è solo polvere, spinta dal vento gravita
Bm         Fa#m
si perderà?
Sol           Em        A
Un'altra estate muore ed io
Bm         Fa#m      Sol           Em        A
simile a lei, sento che tutto se ne va
Strumentale (ripetere l'intro) oppure suonare Do#m e F# nel primo giro
Mentre nel secondo Do#m B7 e F#

B                Mibm                   Sol#m
Bionda età seguimi stai con me
                                             Do#m  Mib#m Em
la gente applaude l'uomo ed io vorrei
                F#
tornare a casa mia

Bm    Fa#m      Sol           Em        A
A solitudine è trasparente attesa
Bm             Fa#m      Sol     Em   A
è un lungo attimo, certo la sola verità
Bm    Fa#m      Sol           Em        A
mi perderò?
Sol           Em        A
Il cielo è rosso fuoco ormai
Bm    Fa#m      Sol           Em        A
non bada a me, fragile e vecchia anima

Solo Chitarra Acustica:
E----------------------------------------------------------------------------------------------
B--------------------------------------------------------4-------5----4---------4-------5---4--
G--------------4------6---------------4------6-------------------------6--------------------6--
D-------6----------------------6---------------------------------------------------------------
A----------------------------------------------------------------------------------------------
E----------------------------------------------------------------------------------------------------------------------

E----------7------5----4----------5-v-----4-v-------------------------------------------------
B----7--------------------------------------7-v----5--v----4--v-------------------------------
G---------------------------------------------------------------------------------------------D---------------------------------------------------------------------------------------------
A---------------------------------------------------------------------------------------------
E---------------------------------------------------------------------------------------------------------------------



B                Mibm                   Sol#m
Bionda età seguimi stai con me
                                             Do#m  Mibm# Em
la gente applaude l'uomo ed io vorrei
                F#
tornare a casa mia
B                Mibm            Sol#m
Acqua che resterà limpida, l'ansia della sera
Do#m  Mibm# Em F#
bussa qui, fuori da casa mia

Strumentale: (2 VOLTE) Bm Fa#m Sol Em A
	     
Добавлено: 20.08.2013
Другие материалы по этой песне:
  • Аккорды и текст

Страница создана 20.08.2013
http://primanota.ru/timoria/jugendflucht-chords.htm
Привет, Гость.
Предлагаем пройти революционный курс по гитаре.
Подарок от PrimaNota.Ru, забирай!