PrimaNota.ru - самый крупный в мире бесплатный архив песенных текстов, аккордов, табулатур и нот


Timoria - Fioriscono - аккорды и текст, видео

Регистрация Запомнить меня
Войти через:  Facebook Google Twitter Vk Yandex Mail.ru

Timoria - Fioriscono - аккорды и текст, видео

Печатать
Просмотров: 101
Уроки эстрадного вокала в Санкт-Петербурге
Fioriscono
Timoria
Avvertenza: per visualizzare l'intavolatura in modo corretto usate
                     un font "monospaced" per esempio il Courier New

Fioriscono (Timoria)

e
|-----------X-X-X-|-------------X-X-X-|-------------X-X-X-|-------------X-X-
X-|
B
|-----------X-X-X-|-------------X-X-X-|-------------X-X-X-|-------------X-X-
X-|
G
|-----------X-X-X-|-------------X-X-X-|-------------X-X-X-|-------------X-X-
X-|
D
|-----------X-X-X-|-------------X-X-X-|-------------X-X-X-|-------------X-X-
X-|
A
|-----------X-X-X-|-------------X-X-X-|-------------X-X-X-|-------------X-X-
X-|
E
|--5--3--5--X-X-X-|--5/7--5--7--X-X-X-|--7/9--7--9--X-X-X-|--7/9--7--9--X-X-
X-|

e |-------------X-X-X-|-------------X-X-X-|
B |-------------X-X-X-|-------------X-X-X-|
G |-------------X-X-X-|-------------X-X-X-|
D |-------------X-X-X-|-------------X-X-X-|
A |-------------X-X-X-|-------------X-X-X-|
E |--3/5--3--5--X-X-X-|--5/7--5--7--X-X-X-|       F#

C#m       A        C#m           A
Lento è il ritorno a casa, ti aspettano
C#m    A       F#
veloce corre l'asfalto, sei solo sei

Lei che segnava il passo dei giorni miei
1000 colori e fiori giorni con lei

C#5        A5         B5       F#5
Fioriscono fioriscono finiscono
C#5        A5         G#5       F#5/G#
Fioriscono fioriscono finiscono

A   B  C#m
Eh,    dove sei?
A   B  F#
Eh,    dove sarai?


A   B  C#m
Eh,   ma dove sei?
A   B  F#
Eh,    dove sarai?

Mentre pensavo alle imprese degli uomini
fino a sfidare il cielo si spingono
lì la mia piccola storia che senso ha?
e la pianura lontano sorride un po'

Fioriscono fioriscono finiscono
Fioriscono fioriscono finiscono

Eh, dove sei?

Eh, dove sarai?

Eh, ma dove sei?

Eh, dove sarai?

===========================

Nella parte prima del ritornello tutto gli accordi (C#m A B F# ecc...)
sono scanditi così: esempio sul C#m

e|--------------------|
B|--------------------|
G|--6--4--6--X--X--X--|
D|--6--4--6--X--X--X--|
A|--4--4--4--X--X--X--|
E|--------------------|

cioè si inserisce una specie di C#sus/4

Sul F# del ritornello far scorrere
il plettro tra la quarta e la quinta corda verso il capotasto

Eventuali correzioni o integrazioni sono le benvenute.

Ciao

         Alberto       alberto@musician.org





     
Добавлено: 21.10.2013
Другие материалы по этой песне:
  • Аккорды и текст

Страница создана 21.10.2013
http://primanota.ru/timoria/fioriscono-chords.htm
Привет, Гость.
Предлагаем пройти революционный курс по гитаре.
Подарок от PrimaNota.Ru, забирай!