PrimaNota.ru - самый крупный в мире бесплатный архив песенных текстов, аккордов, табулатур и нот


Timoria - Europa 3 - таба, видео

Регистрация Запомнить меня
Войти через:  Facebook Google Twitter Vk Yandex Mail.ru

Timoria - Europa 3 - таба, видео

Печатать
Просмотров: 106
Уроки эстрадного вокала в Санкт-Петербурге
		   artist: TIMORIA
                 song: "Europa 3"

lyirics & music : Omar Pedrini
this song is from album "2020 speedball" (1995)
tab by Simone : fianissimo@inwind.it

  intro (classical guitar)
|-------------------------------------------------------------------------------
|----------0---------------0----------------------------------------------------
|------0-----0---0-----0-----0---0------0-------0-------0-------0---------------
|----4---4-----4-----4---4-----4------7---7---7---7---7---7---7---7-------------
|--2---------------2----------------5-------5-------5-------4-------------------
|-------------------------------------------------------------------------------



|-------------------------------------------------------------------------------
|----------0---------------0----------------------------------------------------
|------0-----0---0-----0-----0---0------0-------0-------0-------0---------------
|----4---4-----4-----4---4-----4------7---7---7---7---7---7---7---7-------------
|--2---------------2----------------5-------5-------5-------4-------------------
|-------------------------------------------------------------------------------



  verse
|-------------------------------------------------------------------------------
|----------0---------------0----------------------------------------------------
|------0-----0---0-----0-----0---0------0-------0-------0-------0---------------
|----4---4-----4-----4---4-----4------7---7---7---7---7---7---7---7-------------
|--2---------------2----------------5-------5-------5-------4-------------------
|-------------------------------------------------------------------------------




|-----------------------------------------2-3-----3-2-----2-0-------------------
|----------0---------------0------------3-----3-------3-------3-----------------
|------0-----0---0-----0-----0---0----2---------2-------2-------2---------------
|----4---4-----4-----4---4-----4----0-----------------------------0-------------
|--2---------------2------------------------------------------------------------
|-------------------------------------------------------------------------------



  right guitar
|-------------------------------------------------------------------------------
|----------0---------------0----------------------------------------------------
|------0-----0---0-----0-----0---0------0-------0-------0-------0---------------
|----4---4-----4-----4---4-----4------7---7---7---7---7---7---7---7-------------
|--2---------------2----------------5-------5-------5-------4-------------------
|-------------------------------------------------------------------------------
|                                  | left guitar
|                                  |------3-3p2-2-3-3p2-2-3-3p2-2-3--------
|                                  |----3-3-3-----3-3-----3-3-----3--------
|                                  |--2------------------------------------
|                                  |0--------------------------------------
|                                  |---------------------------------------
|                                  |---------------------------------------



 right guitar
|------------------------------------------------------------------------------
|-----------0---------------0--------------------------------------------------
|-------0-----0---0-----0-----0---0------0-------0-------0---------------------
|-----4---4-----4-----4---4-----4------7---7---7---7---7---7---7---7-----------
|---2---------------2----------------5-------5-------5-------5---4-------------
|------------------------------------------------------------------------------
| left guitar
|---3p2-2-3-3p2-2-3-3p2-2-3-3p2-2--3-3p2-2-3-3p2-2-3-3/5-5-3-3---2--------------
|---3-----3-3-----3-3-----3-3------3-3-----3-3-----3-3---3-3-3---3--------------
|-------------------------------------------------------------------------------
|-------------------------------------------------------------------------------
|-------------------------------------------------------------------------------
|-------------------------------------------------------------------------------



|----------------------------------------2-2p3h2-----0-----0-2------------------
|----------0---------------0-----------3---------3-----3------------------------
|------0-----0---0-----0-----0---0---2-------------2-----2-----2---2------------
|----2---2-----2-----2---2-----2---0-------------------------0---4--------------
|--3---------------0------------------------------------------------------------
|-------------------------------------------------------------------------------



|-------------------------------------------------------------------------------
|--------------------------------------------------0----------------------------
|------0-------0-------2-------0---------2-3-----2------------------------------
|----2---2---0---0---2---2---0---0-----3-----3----------------------------------
|--3-------2-------0-----------------3---------3--------------------------------
|--------------------------3-------1--------------------------------------------

then, the second verse with effects (but as same as the first).

After the second verse start the distortion in E maj

|------------------------------------------------------------------------------
|---------------1--------------------------------------------------------------
|--1----1-1-1------------------------------------------------------------------
|--2----2-2-2------------------------------------------------------------------
|--2----2-2-2------------------------------------------------------------------
|------------------------------------------------------------------------------

...enter the sax


lyrics:

partirà nella notte qui
l'han chiamata Europa 3
nello spazio infinito che
fa sentire vicino a Dio

cercherà il futuro là
nasceranno altre città 

certo che mi mancherà
questa vecchia gente che
mi saluta spera solo in me
che ho paura da nascondere

su una stella nuova
per ritrovare quello che
qui non c'è :

mai più vita
mai più amore


tab by Simone : fianissimo@inwind.it
if you notice mistakes, I please you e-mail me
     
Добавлено: 17.09.2013
Вам также может быть интересно:
Другие материалы по этой песне:
  • Аккорды и текст

Страница создана 17.09.2013
http://primanota.ru/timoria/europa-3-chords.htm
Привет, Гость.
Предлагаем пройти революционный курс по гитаре.
Подарок от PrimaNota.Ru, забирай!