PrimaNota.ru - самый крупный в мире бесплатный архив песенных текстов, аккордов, табулатур и нот


Timoria - Cerco Di Te - таба, видео

Регистрация Запомнить меня
Войти через:  Facebook Google Twitter Vk Yandex Mail.ru

Timoria - Cerco Di Te - таба, видео

Печатать
Просмотров: 111
Уроки эстрадного вокала в Санкт-Петербурге
		   Autore: timoria
titolo: cerco di te
album: etabeta

a me suona bene così, comunque è solo l'intro, gli accordi
non sono riuscito a trovarli

A|--------------------------------------|
 |--------------------------------------|
 |--------------------------------------|
 |--------------------------------------|
 |--------------------------------------|
 |0-0--0--0-0--0-0--0--0-0--0-0--0--0-0-|


B|---------------------------|
 |---------------------------|
 |---------------------------|
 |---------------------------|
 |-7-7--9--10----------------|
 |------------0--0-0--0--0-0-|


C|-----------------------------------------|
 |-----------------------------------------|
 |-----------------------------------------|
 |-----------0---------------0-------------|
 |-10-10--9--------------------------------|
 |-------------0--0-0--0--0----0--0-0--0--0|

D|-------------------------|
 |-------------------------|
 |-------------------------|
 |----------0--------------|
 |-10-10--9----------------|
 |-------------0--0-0--0--0|

E|------------------------|
 |------------------------|
 |------------------------|
 |0-2-0-2-0-2-------------|
 |------------------------|
 |------------0-0-0--0--0-|

nell'ordine
Ax1
Bx2
Cx1
Bx2
Dx2
Ex4

questo è solo l'intro, il resto non sono riuscito a trovarlo.
x qualsiasi cosa
joe88@katamail.com
buon divertimento!!!	     
Добавлено: 18.07.2013
Другие материалы по этой песне:
  • Аккорды и текст

Страница создана 18.07.2013
http://primanota.ru/timoria/cerco-di-te-chords.htm
Привет, Гость.
Предлагаем пройти революционный курс по гитаре.
Подарок от PrimaNota.Ru, забирай!