PrimaNota.ru - самый крупный в мире бесплатный архив песенных текстов, аккордов, табулатур и нот


Timoria - Baby Killer - таба, видео

Регистрация Запомнить меня
Войти через:  Facebook Google Twitter Vk Yandex Mail.ru

Timoria - Baby Killer - таба, видео

Печатать
Просмотров: 81
		   Newsgroups: it.arti.musica.spartiti
Subject: TAB: Baby killer [Timoria]
Date: Mon, 07 Dec 1998 14:13:11 +0100
Organization: DADAnet
Lines: 818
Message-ID:  366BD466.DBA8BD10@dada.it>
NNTP-Posting-Host: 194.184.248.10
Mime-Version: 1.0
Content-Type: text/plain; charset=us-ascii
Content-Transfer-Encoding: 7bit
X-Mailer: Mozilla 4.5 [en] (Win95; I)
X-Accept-Language: it,en
Cache-Post-Path: tzara.dada.it!unknown@dadovago94-p3.dada.it
X-Cache: nntpcache 2.3.3b4 (see http://www.nntpcache.org/)
Xref: news.tin.it it.arti.musica.spartiti:4005620
X-Mozilla-Status: 8000

Non so quanti siano interessati a questa canzone, comunque provate a
suonarla e fatemi sapere cosa ne pensate.
Ciao

Andrea

----------------------------------------------------------------------------------------

Titolo: Baby killer
Artista: Timoria
Album: Ritmo e dolore
Autore tab: Andrea Bandera  a.bandera@dada.it>


Chitarra 1:

E||--------------------|--------------------|
B||--------------------|--------------------|
G||--------------------|--------------------|
D||--------------------|--------------------|
A||--5------------3----|--0------------3----|
E||--------------------|--------------------|


                                           Dmadd9
--------------------|-------------------|--------------0-----------|
--------------------|-------------------|-----------6-----6--------|
--------------------|-------------------|--------7-----------7-----|
--------------------|-------------------|-----7--------------------|
--5------------3----|--0----------------|--5--------------------5--|
--------------------|-------------------|--------------------------|


  Dmadd9/C                   Dmadd9/Bb                  Dmadd9/A
--------------0-----------|--------------0-----------|--------------0--------|

-----------6-----6--------|-----------6-----6--------|-----------6-----------|

--------7-----------7-----|--------7-----------7-----|--------7--------------|

-----7--------------------|-----7--------------------|-----7-----------------|

--------------------------|--------------------------|-----------------------|

--8--------------------8--|--6--------------------6--|--5--------------------|



  Dmadd9/Bb   Dmadd9/A       Dmadd9/F    Dmadd9/E
--------------------------|--------------------------|
-----------6-----------6--|-----------6--------------|
--------7-----------7-----|--------7-----------------|
-----7-----------7--------|-----7--------------------|
--------------------------|--8-----------7----7h8p7\-|
--6-----------5-----------|--------------------------|


  Dmadd9                     Dm                  Dmadd9
--------------0-----------|-------------------|--------------0-----------|

-----------6-----6--------|-------------------|-----------6-----6--------|

--------7-----------7-----|--7----------------|--------7-----------7-----|

-----7-----------------7--|-------------------|-----7--------------------|

--5-----------------------|-------------------|--5--------------------5--|

--------------------------|-------------------|--------------------------|



  Dmadd9/C                   Dmadd9/Bb                  Dmadd9/A
--------------0-----------|--------------0-----------|--------------0--------|

-----------6-----6--------|-----------6-----6--------|-----------6-----------|

--------7-----------7-----|--------7-----------7-----|--------7--------------|

-----7--------------------|-----7--------------------|-----7-----------------|

--------------------------|--------------------------|-----------------------|

--8--------------------8--|--6--------------------6--|--5--------------------|



  Dmadd9/Bb   Dmadd9/A       Dmadd9/F    Dmadd9/E
--------------------------|--------------------------|
-----------6-----------6--|-----------6--------------|
--------7-----------7-----|--------7-----------------|
-----7-----------7--------|-----7--------------------|
--------------------------|--8-----------7----7h8p7\-|
--6-----------5-----------|--------------------------|


  Dmadd9                     Dm
--------------0-----------|-------------------|------------------|
-----------6-----6--------|-------------------|------------------|
--------7-----------7-----|--7----------------|------------------|
-----7-----------------7--|-------------------|------------------|
--5-----------------------|-------------------|------------------|
--------------------------|-------------------|------------------|


                     Dmadd9                     Dmadd9/C
------------------|--------------0-----------|--------------0-----------|

------------------|-----------6-----6--------|-----------6-----6--------|

------------------|--------7-----------7-----|--------7-----------7-----|

------------------|-----7--------------------|-----7--------------------|

------------------|--5--------------------5--|--------------------------|

------------------|--------------------------|--8--------------------8--|



  Dmadd9/Bb                  Dmadd9/A                Dmadd9/Bb
Dmadd9/A
--------------0-----------|--------------0--------|--------------------------|

-----------6-----6--------|-----------6-----------|-----------6-----------6--|

--------7-----------7-----|--------7--------------|--------7-----------7-----|

-----7--------------------|-----7-----------------|-----7-----------7--------|

--------------------------|-----------------------|--------------------------|

--6--------------------6--|--5--------------------|--6-----------5-----------|



  Dmadd9/F    Dmadd9/E       Dmadd9                     Dm
--------------------------|--------------0-----------|-------------------|

-----------6--------------|-----------6-----6--------|-------------------|


--------7-----------------|--------7-----------7-----|--7----------------|

-----7--------------------|-----7-----------------7--|-------------------|

--8-----------7----7h8p7\-|--5-----------------------|-------------------|

--------------------------|--------------------------|-------------------|



  Dmadd9                     Dmadd9/C
--------------0-----------|--------------0-----------|
-----------6-----6--------|-----------6-----6--------|
--------7-----------7-----|--------7-----------7-----|
-----7--------------------|-----7--------------------|
--5--------------------5--|--------------------------|
--------------------------|--8--------------------8--|


  Dmadd9/Bb                  Dmadd9/A                Dmadd9/Bb
Dmadd9/A
--------------0-----------|--------------0--------|--------------------------|

-----------6-----6--------|-----------6-----------|-----------6-----------6--|

--------7-----------7-----|--------7--------------|--------7-----------7-----|

-----7--------------------|-----7-----------------|-----7-----------7--------|

--------------------------|-----------------------|--------------------------|

--6--------------------6--|--5--------------------|--6-----------5-----------|



  Dmadd9/F    Dmadd9/E       Dmadd9                     Dm
--------------------------|--------------0-----------|-------------------|

-----------6--------------|-----------6-----6--------|-------------------|

--------7-----------------|--------7-----------7-----|-------------------|

-----7--------------------|-----7-----------------7--|--0----------------|

--8-----------7----7h8p7\-|--5-----------------------|-------------------|

--------------------------|--------------------------|-------------------|



  Dmadd9                     Dmadd9/C
--------------0-----------|--------------0-----------|
-----------6-----6--------|-----------6-----6--------|
--------7-----------7-----|--------7-----------7-----|
-----7--------------------|-----7--------------------|
--5--------------------5--|--------------------------|
--------------------------|--8--------------------8--|


  Dmadd9/Bb                  Dmadd9/Bb
--------------0-----------|--------------0-----------|
-----------6-----6--------|-----------6-----6--------|
--------7-----------7-----|--------7-----------7-----|
-----7--------------------|-----7--------------------|
--------------------------|--------------------------|
--6--------------------6--|--6--------------------6--|


  Dmadd9                     Dmadd9/C
--------------0-----------|--------------0-----------|
-----------6-----6--------|-----------6-----6--------|
--------7-----------7-----|--------7-----------7-----|
-----7--------------------|-----7--------------------|
--5--------------------5--|--------------------------|
--------------------------|--8--------------------8--|


  Dmadd9/Bb                  Dmadd9/Bb
--------------0-----------|--------------0-----------|
-----------6-----6--------|-----------6-----6--------|
--------7-----------7-----|--------7-----------7-----|
-----7--------------------|-----7--------------------|
--------------------------|--------------------------|
--6--------------------6--|--6--------------------6--|


  Dmadd9                     Dmadd9/C
--------------0-----------|--------------0-----------|
-----------6-----6--------|-----------6-----6--------|
--------7-----------7-----|--------7-----------7-----|
-----7--------------------|-----7--------------------|
--5--------------------5--|--------------------------|
--------------------------|--8--------------------8--|


  Dmadd9/Bb                  Dmadd9/Bb
--------------0-----------|--------------0-----------|
-----------6-----6--------|-----------6-----6--------|
--------7-----------7-----|--------7-----------7-----|
-----7--------------------|-----7--------------------|
--------------------------|--------------------------|
--6--------------------6--|--6--------------------6--|


  Dmadd9                     Dmadd9/C
--------------0-----------|--------------0-----------|
-----------6-----6--------|-----------6-----6--------|
--------7-----------7-----|--------7-----------7-----|
-----7--------------------|-----7--------------------|
--5--------------------5--|--------------------------|
--------------------------|--8--------------------8--|


  Dmadd9/Bb                  Dmadd9/Bb
--------------0-----------|--------------0-----------|
-----------6-----6--------|-----------6-----6--------|
--------7-----------7-----|--------7-----------7-----|
-----7--------------------|-----7--------------------|
--------------------------|--------------------------|
--6--------------------6--|--6--------------------6--|


Chitarra 2:

  Dm                      C                       Bb
-----------------------|-----------------------|-----------1-----------|

-----------6-----------|-----------5-----------|--------------3--------|

--7-----------7--------|--5-----------5--------|--3--------------3-----|

--7--------------7-----|--5--------------5-----|--3-----------------3--|

--5-----------------5--|--3-----------------3--|--1--------------------|

-----------------------|-----------------------|-----------------------|



  Bb                      Bb5        A5            F5         E5
-----------1-----------|------------------------|-------------------------|

--------------3--------|-------6----------6-----|-------6-----------------|

-----------------3-----|----------7----------7--|----------7--------------|

--------------------3--|------------------------|-------------------------|

--1--------------------|------------------------|--8----------7----7h8p7--|

-----------------------|--6----------5----------|-------------------------|



  Dm                      D5                  Dm
-----------------------|-------------------|-----------------------|
-----------6-----------|-------------------|-----------6-----------|
--7-----------7--7-----|--7----------------|--7-----------7--------|
--7-----------------7--|-------------------|--7--------------7-----|
--5--------------------|-------------------|--5-----------------5--|
-----------------------|-------------------|-----------------------|
                    Har   Har

  C                       Bb                      Bb
-----------------------|-----------1-----------|-----------1-----------|

-----------5-----------|--------------3--------|--------------3--------|

--5-----------5--------|--3--------------3-----|-----------------3-----|

--5--------------5-----|--3-----------------3--|--------------------3--|

--3-----------------3--|--1--------------------|--1--------------------|

-----------------------|-----------------------|-----------------------|



  Bb5        A5            F5         E5
------------------------|----------------------|------------------|
-------6----------6-----|-------6--------------|------------------|
----------7----------7--|----------7-----------|------------------|
------------------------|----------------------|------------------|
------------------------|--8----------7--------|------------------|
--6----------5----------|----------------------|------------------|


  Dm                      C                       Bb
-----------------------|-----------------------|-----------1-----------|

-----------6-----------|-----------5-----------|--------------3--------|

--7-----------7--------|--5-----------5--------|--3--------------3-----|

--7--------------7-----|--5--------------5-----|--3-----------------3--|

--5-----------------5--|--3-----------------3--|--1--------------------|

-----------------------|-----------------------|-----------------------|



  Bb                      Bb5        A5            F5         E5
-----------1-----------|------------------------|----------------------|

--------------3--------|-------6----------6-----|-------6--------------|

-----------------3-----|----------7----------7--|----------7-----------|

--------------------3--|------------------------|----------------------|

--1--------------------|------------------------|--8----------7--------|

-----------------------|--6----------5----------|----------------------|



  D5                         D5          Bb5  A5      D5
--------------------------|------------------------|--------------------------|

--------------------------|------------------------|--------------------------|

--7--7--7--7--7--7--7--7--|--7--7--7--7------------|--7--7--7--7--7--7--7--7--|

--7--7--7--7--7--7--7--7--|--7--7--7--7--8----7----|--7--7--7--7--7--7--7--7--|

--5--5--5--5--5--5--5--5--|--5--5--5--5--8----7----|--5--5--5--5--5--5--5--5--|

--------------------------|--------------6----5----|--------------------------|



  D5          Bb5  A5      D5                         D5          Bb5
A5
------------------------|--------------------------|------------------------|

------------------------|--------------------------|------------------------|

--7--7--7--7------------|--7--7--7--7--7--7--7--7--|--7--7--7--7------------|

--7--7--7--7--8----7----|--7--7--7--7--7--7--7--7--|--7--7--7--7--8----7----|

--5--5--5--5--8----7----|--5--5--5--5--5--5--5--5--|--5--5--5--5--8----7----|

--------------6----5----|--------------------------|--------------6----5----|



  D5                         D5          Bb5  A5      D5
--------------------------|------------------------|--------------------------|

--------------------------|------------------------|--------------------------|

--7--7--7--7--7--7--7--7--|--7--7--7--7------------|--7--7--7--7--7--7--7--7--|

--7--7--7--7--7--7--7--7--|--7--7--7--7--8----7----|--7--7--7--7--7--7--7--7--|

--5--5--5--5--5--5--5--5--|--5--5--5--5--8----7----|--5--5--5--5--5--5--5--5--|

--------------------------|--------------6----5----|--------------------------|



  D5                         D5                         D5          Bb5
A5
--------------------------|--------------------------|------------------------|

--------------------------|--------------------------|------------------------|

--7--7--7--7--7--7--7--7--|--7--7--7--7--7--7--7--7--|--7--7--7--7------------|

--7--7--7--7--7--7--7--7--|--7--7--7--7--7--7--7--7--|--7--7--7--7--8----7----|

--5--5--5--5--5--5--5--5--|--5--5--5--5--5--5--5--5--|--5--5--5--5--8----7----|

--------------------------|--------------------------|--------------6----5----|



  D5                         D5
--------------------------|--------------------------|
--------------------------|--------------------------|
--7--7--7--7--7--7--7--7--|--7--7--7--7--7--7--7--7--|
--7--7--7--7--7--7--7--7--|--7--7--7--7--7--7--7--7--|
--5--5--5--5--5--5--5--5--|--5--5--5--5--5--5--5--5--|
--------------------------|--------------------------|


  D5                         D5          Bb5  A5      D5
--------------------------|------------------------|--------------------------|

--------------------------|------------------------|--------------------------|

--7--7--7--7--7--7--7--7--|--7--7--7--7------------|--7--7--7--7--7--7--7--7--|

--7--7--7--7--7--7--7--7--|--7--7--7--7--8----7----|--7--7--7--7--7--7--7--7--|

--5--5--5--5--5--5--5--5--|--5--5--5--5--8----7----|--5--5--5--5--5--5--5--5--|

--------------------------|--------------6----5----|--------------------------|



  D5                         D5                         D5          Bb5
A5
--------------------------|--------------------------|------------------------|

--------------------------|--------------------------|------------------------|

--7--7--7--7--7--7--7--7--|--7--7--7--7--7--7--7--7--|--7--7--7--7------------|

--7--7--7--7--7--7--7--7--|--7--7--7--7--7--7--7--7--|--7--7--7--7--8----7----|

--5--5--5--5--5--5--5--5--|--5--5--5--5--5--5--5--5--|--5--5--5--5--8----7----|

--------------------------|--------------------------|--------------6----5----|



  G5                         G5
--------------------------|--------------------------|

--------------------------|--------------------------|
--------------------------|--------------------------|
--5--5--5--5--5--5--5--5--|--5--5--5--5--5--5--5--5--|
--5--5--5--5--5--5--5--5--|--5--5--5--5--5--5--5--5--|
--3--3--3--3--3--3--3--3--|--3--3--3--3--3--3--3--3--|


  G5                         G5
--------------------------|--------------------------|
--------------------------|--------------------------|
--------------------------|--------------------------|
--5--5--5--5--5--5--5--5--|--5--5--5--5--5--5--5--5--|
--5--5--5--5--5--5--5--5--|--5--5--5--5--5--5--5--5--|
--3--3--3--3--3--3--3--3--|--3--3--3--3--3--3--3--3--|


  D5                         D5          Bb5  A5      D5
--------------------------|------------------------|--------------------------|

--------------------------|------------------------|--------------------------|

--7--7--7--7--7--7--7--7--|--7--7--7--7------------|--7--7--7--7--7--7--7--7--|

--7--7--7--7--7--7--7--7--|--7--7--7--7--8----7----|--7--7--7--7--7--7--7--7--|

--5--5--5--5--5--5--5--5--|--5--5--5--5--8----7----|--5--5--5--5--5--5--5--5--|

--------------------------|--------------6----5----|--------------------------|



  D5          Bb5  A5      G5                         G5
------------------------|--------------------------|--------------------------|

------------------------|--------------------------|--------------------------|

--7--7--7--7------------|--------------------------|--------------------------|

--7--7--7--7--8----7----|--5--5--5--5--5--5--5--5--|--5--5--5--5--5--5--5--5--|

--5--5--5--5--8----7----|--5--5--5--5--5--5--5--5--|--5--5--5--5--5--5--5--5--|

--------------6----5----|--3--3--3--3--3--3--3--3--|--3--3--3--3--3--3--3--3--|



  G5                         G5
--------------------------|--------------------------|
--------------------------|--------------------------|
--------------------------|--------------------------|
--5--5--5--5--5--5--5--5--|--5--5--5--5--5--5--5--5--|
--5--5--5--5--5--5--5--5--|--5--5--5--5--5--5--5--5--|
--3--3--3--3--3--3--3--3--|--3--3--3--3--3--3--3--3--|


  D5                         D5          Bb5  A5      D5
--------------------------|------------------------|--------------------------|

--------------------------|------------------------|--------------------------|

--7--7--7--7--7--7--7--7--|--7--7--7--7------------|--7--7--7--7--7--7--7--7--|

--7--7--7--7--7--7--7--7--|--7--7--7--7--8----7----|--7--7--7--7--7--7--7--7--|

--5--5--5--5--5--5--5--5--|--5--5--5--5--8----7----|--5--5--5--5--5--5--5--5--|

--------------------------|--------------6----5----|--------------------------|



  D5          Bb5  A5      G5                         G5
------------------------|--------------------------|--------------------------|

------------------------|--------------------------|--------------------------|

--7--7--7--7------------|--------------------------|--------------------------|

--7--7--7--7--8----7----|--5--5--5--5--5--5--5--5--|--5--5--5--5--5--5--5--5--|

--5--5--5--5--8----7----|--5--5--5--5--5--5--5--5--|--5--5--5--5--5--5--5--5--|

--------------6----5----|--3--3--3--3--3--3--3--3--|--3--3--3--3--3--3--3--3--|



  G5                         G5                         D5
--------------------------|--------------------------|-------------------|

--------------------------|--------------------------|-------------------|

--------------------------|--------------------------|--7----------------|

--5--5--5--5--5--5--5--5--|--5--5--5--5--5--5--5--5--|--7----------------|

--5--5--5--5--5--5--5--5--|--5--5--5--5--5--5--5--5--|--5----------------|

--3--3--3--3--3--3--3--3--|--3--3--3--3--3--3--3--3--|-------------------|



  C5                  Bb5                 Bb5
-------------------|-------------------|-------------------|
-------------------|-------------------|-------------------|
--5----------------|--3----------------|--3----------------|
--5----------------|--3----------------|--3----------------|
--3----------------|--1----------------|--1----------------|
-------------------|-------------------|-------------------|


  Bb5      A5          F5        E5          D5
--------------------|---------------------|-------------------|
--------------------|---------------------|-------------------|
--------------------|--10--------9--------|--7----------------|
--8--------7--------|--10--------9--------|--7----------------|
--8--------7--------|--8---------7--------|--5----------------|
--6--------5--------|---------------------|-------------------|


  D5                  D5                  C5                  Bb5
-------------------|-------------------|-------------------|-------------------|

-------------------|-------------------|-------------------|-------------------|

--7----------------|--7----------------|--5----------------|--3----------------|

--7----------------|--7----------------|--5----------------|--3----------------|

--5----------------|--5----------------|--3----------------|--1----------------|

-------------------|-------------------|-------------------|-------------------|



  Bb5                 Bb5      A5          F5        E5
-------------------|--------------------|---------------------|
-------------------|--------------------|---------------------|
--3----------------|--------------------|--10--------9--------|
--3----------------|--8--------7--------|--10--------9--------|
--1----------------|--8--------7--------|--8---------7--------|
-------------------|--6--------5--------|---------------------|


  D5                         D5
--------------------------|--------------------------|
--------------------------|--------------------------|
--7--7--7--7--7--7--7--7--|--7--7--7--7--7--7--7--7--|
--7--7--7--7--7--7--7--7--|--7--7--7--7--7--7--7--7--|
--5--5--5--5--5--5--5--5--|--5--5--5--5--5--5--5--5--|
--------------------------|--------------------------|


  D5                         D5
--------------------------|--------------------------|
--------------------------|--------------------------|
--7--7--7--7--7--7--7--7--|--7--7--7--7--7--7--7--7--|
--7--7--7--7--7--7--7--7--|--7--7--7--7--7--7--7--7--|
--5--5--5--5--5--5--5--5--|--5--5--5--5--5--5--5--5--|
--------------------------|--------------------------|


  D5                         D5
--------------------------|--------------------------|
--------------------------|--------------------------|
--7--7--7--7--7--7--7--7--|--7--7--7--7--7--7--7--7--|
--7--7--7--7--7--7--7--7--|--7--7--7--7--7--7--7--7--|
--5--5--5--5--5--5--5--5--|--5--5--5--5--5--5--5--5--|
--------------------------|--------------------------|


  D5                         D5
--------------------------|--------------------------|
--------------------------|--------------------------|
--7--7--7--7--7--7--7--7--|--7--7--7--7--7--7--7--7--|
--7--7--7--7--7--7--7--7--|--7--7--7--7--7--7--7--7--|
--5--5--5--5--5--5--5--5--|--5--5--5--5--5--5--5--5--|
--------------------------|--------------------------|


  D5                         D5
--------------------------|--------------------------|
--------------------------|--------------------------|
--7--7--7--7--7--7--7--7--|--7--7--7--7--7--7--7--7--|
--7--7--7--7--7--7--7--7--|--7--7--7--7--7--7--7--7--|
--5--5--5--5--5--5--5--5--|--5--5--5--5--5--5--5--5--|
--------------------------|--------------------------|


  D5                         D5
--------------------------|--------------------------|
--------------------------|--------------------------|
--7--7--7--7--7--7--7--7--|--7--7--7--7--7--7--7--7--|
--7--7--7--7--7--7--7--7--|--7--7--7--7--7--7--7--7--|
--5--5--5--5--5--5--5--5--|--5--5--5--5--5--5--5--5--|
--------------------------|--------------------------|


  D5                         D5
--------------------------|--------------------------|
--------------------------|--------------------------|
--7--7--7--7--7--7--7--7--|--7--7--7--7--7--7--7--7--|
--7--7--7--7--7--7--7--7--|--7--7--7--7--7--7--7--7--|
--5--5--5--5--5--5--5--5--|--5--5--5--5--5--5--5--5--|
--------------------------|--------------------------|


  D5                         D5
--------------------------|--------------------------|
--------------------------|--------------------------|
--7--7--7--7--7--7--7--7--|--7--7--7--7--7--7--7--7--|
--7--7--7--7--7--7--7--7--|--7--7--7--7--7--7--7--7--|
--5--5--5--5--5--5--5--5--|--5--5--5--5--5--5--5--5--|
--------------------------|--------------------------|


  D5                         D5
--------------------------|--------------------------|------------------|

--------------------------|--------------------------|------------------|

--7--7--7--7--7--7--7--7--|--7--7--7--7--7--7--7--7--|------------------|

--7--7--7--7--7--7--7--7--|--7--7--7--7--7--7--7--7--|------------------|

--5--5--5--5--5--5--5--5--|--5--5--5--5--5--5--5--5--|------------------|

--------------------------|--------------------------|------------------|



                       D5                         C5
------------------||---------------------------|--------------------------|

------------------||---------------------------|--------------------------|

------------------||*--7--7--7--7--7--7--7--7--|--5--5--5--5--5--5--5--5--|

------------------||*--7--7--7--7--7--7--7--7--|--5--5--5--5--5--5--5--5--|

------------------||---5--5--5--5--5--5--5--5--|--3--3--3--3--3--3--3--3--|

------------------||---------------------------|--------------------------|



  Bb5                        Bb5                      4x
--------------------------|---------------------------||
--------------------------|---------------------------||
--3--3--3--3--3--3--3--3--|--3--3--3--3--3--3--3--3--*||
--3--3--3--3--3--3--3--3--|--3--3--3--3--3--3--3--3--*||
--1--1--1--1--1--1--1--1--|--1--1--1--1--1--1--1--1---||
--------------------------|---------------------------||


  D5                         C5                         Bb5
--------------------------|--------------------------|-------------------||

--------------------------|--------------------------|-------------------||

--7--7--7--7--7--7--7--7--|--5--5--5--5--5--5--5--5--|--3----------------||

--7--7--7--7--7--7--7--7--|--5--5--5--5--5--5--5--5--|--3----------------||

--5--5--5--5--5--5--5--5--|--3--3--3--3--3--3--3--3--|--1----------------||

--------------------------|--------------------------|-------------------||

Assolo:

------------------------|---------------------|----------------------|
---------6--8--8--8--8--|--8b-------8b---8b---|--8b---8b---8b---8b---|
------7-----------------|---------------------|----------------------|
------------------------|---------------------|----------------------|
------------------------|---------------------|----------------------|
------------------------|---------------------|----------------------|



----------------------|-------------------------|-------------------|
--8b---8b---8b---8b---|--8b---8b---8b-6h8p6-----|-------------------|
----------------------|----------------------7--|--7----------------|
----------------------|-------------------------|-------------------|
----------------------|-------------------------|-------------------|
----------------------|-------------------------|-------------------|



----------------------|--------------------------|--------------------|
----------------------|--------------------------|--------------------|
------------------10--|--12b-------10h12p10------|--12----------------|
--------------12------|--------------------------|--------------------|
----------------------|--------------------------|--------------------|
----------------------|--------------------------|--------------------|



--15p13p12h15p13p12h15p13p12h15p13p12h15p13p12h15p13p12h15p13p12h15p13h12-|

--------------------------------------------------------------------------|

--------------------------------------------------------------------------|

--------------------------------------------------------------------------|

--------------------------------------------------------------------------|

--------------------------------------------------------------------------|




--15b-----15b-15b-15--13h15p13\8-|--------------------------|
---------------------------------|--------------------------|
---------------------------------|--10------10--10------10--|
---------------------------------|--10------10--10------10--|
---------------------------------|--0-------0---0-------0---|
---------------------------------|--------------------------|



--------------------------------|------------------------------|
--------------------------------|------------------------------|
----10--10--10--10------10--12--|--10------------10h12p10--12--|
--------------------12----------|----------12------------------|
--------------------------------|------------------------------|
--------------------------------|------------------------------|



----------------------------|-----------------------------|
------------13--------------|-----------------------------|
--12b-----------12r-10--12--|--10------------10-12-10-12--|
----------------------------|----------------10-12-10-12--|
----------------------------|-----------------------------|
----------------------------|-----------------------------|



----------------------|----------------------------|
----------------------|----------------------------|
--10------------------|--10----------10-----10-----|
----------12----------|-----------12-----12--------|
----------------------|----------------------------|
----------------------|----------------------------|



--------------------------------|--------------------|
--------------------------------|--13b---------------|
----13--13--13--13--------------|--------------------|
----12b-12b-12b-12b-12--10--12--|--------------------|
--------------------------------|--------------------|
--------------------------------|--------------------|




     
Добавлено: 08.11.2013
Другие материалы по этой песне:
  • Аккорды и текст

Страница создана 08.11.2013
http://primanota.ru/timoria/baby-killer-chords.htm
Привет, Гость.
Предлагаем пройти революционный курс по гитаре.
Подарок от PrimaNota.Ru, забирай!