PrimaNota.ru - самый крупный в мире бесплатный архив песенных текстов, аккордов, табулатур и нот


Timo Rautiainen Trio Niskalaukaus - Lumessakahlaajat - текст песни, таба, видео

Регистрация Запомнить меня
Войти через:  Facebook Google Twitter Vk Yandex Mail.ru

Timo Rautiainen Trio Niskalaukaus - Lumessakahlaajat - текст песни, таба, видео

Печатать
Просмотров: 84
-------------------------------------------------------------------------------
                             Lumessakahlaajat - Timo Rautiainen & Trio Niskalaukaus
-------------------------------------------------------------------------------
Tabbed by:Tume
Email:Tume95@windowslive.com


                               this thing 2 times
Tuning:Standard               /  \
                             /    \
 Acoustic intro          this 3x  then:1 time.
e|-------------------------------|-------------------|
B|-------------------------------|-------------------|
G|-------------------------------|-------------------|
D|--0--3--0--3---5-3-2-2-3-2-0-0-|-3--3-3-3-5-7-5-3-2|
A|-------------------------------|-------------------|
E|-------------------------------|-------------------|

Then begings heavy stuff \m/
e|-----------|
B|-----------|
G|-----------|
D|--3-5-7-3--|
A|-----------|
E|-----------|

Riff A
Lead goes:
e|----------------------------------|
B|----------------------------------|
G|----------------------------------|
D|-0--3-0--7-0--3-0-----2---3-5-7-3-|
A|-------------------3----3---------|
E|----------------------------------|
Second guitar:
e|----------------------------------|
B|----------------------------------|
G|----------------------------------|
D|-0--3-0--7-0--3-0-----2---3-5-7-3-|
A|-0--3-0--7-0--3-0--3--2-3-3-5-7-3-|
E|-------------------3----3---------|

Riff B
This im not very sure about but i believe it goes like this.
e|---------------------------------||-----------|
B|---------------------------------||-----------|
G|---------------------------------||-----------|
D|---------------------------------||--3-5-7-3--|
A|-5-5-5-5-5-5-5-5-3-3-3-3-3-3-3-3-||-----------|
E|-5-5-5-5-5-5-5-5-3-3-3-3-3-3-3-3-||-----------| |
                                                  |
                                                   \___
e|---------------------------------------------------| \
B|---------------------------------------------------| |
G|---------------------------------------------------| |
D|---------------------------------------------------| |
A|-5-5-5-5-5-5-5-5-3-3-3-3-3-3-3-3---1-1-1-1-3-3-3-3-|\/
E|-5-5-5-5-5-5-5-5-3-3-3-3-3-3-3-3---1-1-1-1-3-3-3-3-||
                            _________________________/
                           /                            That whole thing 
                          \/ Continues..
e|-------------------------------------------------|
B|-------------------------------------------------|
G|-------------------------------------------------|
D|-------------------------------------------------|
A|-1-1-1-1-0-0-0-0-1-1-1-1-1-1-1-1-3-3-3-3-3-3-3-3-|
E|-1-1-1-1-0-0-0-0-1-1-1-1-1-1-1-1-3-3-3-3-3-3-3-3-|
Chorus:
Riff C
e|-------------------------|
B|-------------------------|
G|-------------------------|
D|---3---3-5-3-2-2-3-2-----|
A|-5---5---------------5-5-|
E|-------------------------|

e|--------------------------|
B|--------------------------|
G|--------------------------|
D|--------------------------|
A|-3---3--5-3-2-2-3-2-------|
E|---3---3-----------5-5----|

e|--------------------------|
B|--------------------------|
G|--------------------------|
D|--------------------------|
A|----3---3-5-3-2-2-3-2-----|
E|1---1-----------------5--5|

e|-----------------|
B|-----------------|
G|-----------------|
D|-3-3-3-3-5-7-5-3-|
A|-----------------|
E|-----------------|
************************************

| /   slide up
| \   slide down
| h   hammer-on
| p   pull-off
| ~   vibrato
| +   harmonic
| x   Mute note
| b   Bend
| pb  Pre-bend
| br  Bend release
| pbr Pre-bend release
| brb Bend release bend

************************************
Добавлено: 08.06.2016
Другие материалы по этой песне:
  • Аккорды и текст

Страница создана 19.04.2012
http://primanota.ru/timo-rautiainen-trio-niskalaukaus/lumessakahlaajat-chords.htm
Привет, Гость.
Предлагаем пройти революционный курс по гитаре.
Подарок от PrimaNota.Ru, забирай!