PrimaNota.ru - самый крупный в мире бесплатный архив песенных текстов, аккордов, табулатур и нот


Timo Rautiainen Trio Niskalaukaus - Elegia - текст песни, таба, видео

Регистрация Запомнить меня
Войти через:  Facebook Google Twitter Vk Yandex Mail.ru

Timo Rautiainen Trio Niskalaukaus - Elegia - текст песни, таба, видео

Печатать
Просмотров: 90
Artist:Timo Rautiainen & Trio Niskalaukaus
Song:Elegia
Tabbed by Ville Viljamaa

En jaksanu nytte tehä kolomos-kitaraa, mutta hyvältä tämä kuulostaa
kahellakin kitaralla. saattaa olla virheitä kun nopiaa sutasin tämän.

E|-------------------------------------------------------------------|
B|--6-6-6-3-5-5-5-1-3---------------6-----3-5-5-5-1-3----------------|
G|---------------------2---------------------------------------------|
D|-------------------------------------------------------------------|
A|-------------------------------------------------------------------|
D|-------------------------------------------------------------------|
 |                                                                   |
E|-------------------------------------------------------------------|
B|-------------------------------------------------------------------|
G|-------------------------------------------------------------------|
D|-------------------------------------------------------------------|
A|--8-8-8-8-7-7-7-7-0-0-0-0-0-0-0-0-8-8-8-8-7-7-7-7-0-0-0-0-0-0-0-0--|
D|--8-8-8-8-7-7-7-7-0-0-0-0-0-0-0-0-8-8-8-8-7-7-7-7-0-0-0-0-0-0-0-0--|


|-------------------------------------------------------------------|
|--6-6-6-3-5-5-5-1-3---------------6-----3-5-5-5-1-3----------------|
|---------------------2---------------------------------------------|
|-------------------------------------------------------------------|
|-------------------------------------------------------------------|
|-------------------------------------------------------------------|
|                                                                   |
|-------------------------------------------------------------------|
|-------------------------------------------------------------------|
|-------------------------------------------------------------------|
|--------------------------------------------------0-0-0-0-0--------|
|--8-8-8-8-7-7-7-7-0-0-0-0-0-0-0-0-1-1-1-1-3-3-3-3-0-0-0-0-0-1-1-0--|
|--8-8-8-8-7-7-7-7-0-0-0-0-0-0-0-0-3-3-3-3-2-2-2-2-0-0-0-0-0-3-3-2--|


|-------------------------------------------------------------------|
|----------6-5-3-----6---6-----------------6-5-3-----6-----6-8------|
|--2-------------5-3---------------2-------------5-3-----3----------|
|--0-------------------------------0--------------------------------|
|-------------------------------------------------------------------|
|-------------------------------------------------------------------|
|                                                                   |
|-------------------------------------------------------------------|
|-------------------------------------------------------------------|
|-------------------------------------------------------------------|
|-------------------------------------------------------------------|
|--0-0-0-0-0-0-0-0-1-1-1-1-1-0-0-0-0-0-0-0-0-0-0-0-1-1-1-1-1-3-3-3--|
|--0-0-0-0-0-0-0-0-3-3-3-3-3-2-2-2-0-0-0-0-0-0-0-0-3-3-3-3-3-5-5-5--|


|-----------------------------------------------------------------|
|--------6-5-3-----6---6-------8---8/10-10/13-13--11---11-10-8----|
|-2------------5-3------------------------------------------------|
|-0---------------------------------------------------------------|
|-----------------------------------------------------------------|
|-----------------------------------------------------------------|
|                                                                 |
|-----------------------------------------------------------------|
|-----------------------------------------------------------------|
|-----------------------------------------------------------------|
|-----------------------------------------------------------------|
|--0-0-0-0-0-0-0-0-8-8-8-8-8-8-5-5-3-3-3-3-3-3-3-3-3-3-3-5-5-5-5--|
|--0-0-0-0-0-0-0-0-8-8-8-8-8-8-5-5-3-3-3-3-3-3-3-3-2-2-2-5-5-5-5--|


|-------------------------------------------------------------------|
|--5-----------6---3-----11-10-6/8-5-----------6---3-----11-10-6/8--|
|-------------------------------------------------------------------|
|-------------------------------------------------------------------|
|-------------------------------------------------------------------|
|-------------------------------------------------------------------|
|                                                                   |
|-------------------------------------------------------------------|
|-------------------------------------------------------------------|
|-------------------------------------------------------------------|
|--2-2-2-2-2-2-2-2-0-0-0-0-0-0-0-0-2-2-2-2-2-2-2-2-0-0-0-0-0-0-0-0--|
|--3-3-3-3-3-3-3-3-1-1-1-1-1-1-1-1-3-3-3-3-3-3-3-3-1-1-1-1-1-1-1-1--|
|--5-5-5-5-5-5-5-5-3-3-3-3-3-3-3-3-5-5-5-5-5-5-5-5-3-3-3-3-3-3-3-3--|


|-------------------------------------------------------------------|
|--5-----------6---3----1311108/10-3--------------------------------|
|-------------------------------------------------------------------|
|-------------------------------------------------------------------|
|-------------------------------------------------------------------|
|-------------------------------------------------------------------|
|                                                                   |
|-------------------------------------------------------------------|
|-------------------------------------------------------------------|
|-------------------------------------------------------------------|
|--2-2-2-2-2-2-2-2-0-0-0-0------------------------------------------|
|--3-3-3-3-3-3-3-3-1-1-1-1-0-0-0-0-0-0-0-0-0-0-0-0-0-0-0-0-0-1-1-0--|
|--5-5-5-5-5-5-5-5-3-3-3-3-2-2-2-2-0-0-0-0-0-0-0-0-0-0-0-0-0-3-3-2--|


|-------------------------------------------------------------------|
|-------------------------------------------------------------------|
|-------------------------------------------------------------------|
|-------------------------------------------------------------------|
|--0-0-0-0-0-0-0-0-8-8-8-8-8-5-5-5-0-0-0-0-0-0-0-0-8-8-8-8-8101010--|
|--0-0-0-0-0-0-0-0-8-8-8-8-8-5-5-5-0-0-0-0-0-0-0-0-8-8-8-8-8101010--|
|                                                                   |
|-------------------------------------------------------------------|
|-------------------------------------------------------------------|
|-------------------------------------------------------------------|
|-------------------------------------------------------------------|
|--0-0-0-0-0-0-0-0-1-1-1-1-1-0-0-0-0-0-0-0-0-0-0-0-1-1-1-1-1-3-3-3--|
|--0-0-0-0-0-0-0-0-3-3-3-3-3-2-2-2-0-0-0-0-0-0-0-0-3-3-3-3-3-5-5-5--|


|-----------------------------------------------------------------|
|-----------------------------------------------------------------|
|-----------------------------------------------------------------|
|-----------------------------------------------------------------|
|--0-0-0-0-0-0-0-0-8-8-8-8-8-8-5-5-3-3-3-3-3-3-3-3-3-3-3-5-5-5-5--|
|--0-0-0-0-0-0-0-0-8-8-8-8-8-8-5-5-3-3-3-3-3-3-3-3-2-2-2-5-5-5-5--|
|                                                                 |
|-----------------------------------------------------------------|
|-----------------------------------------------------------------|
|-----------------------------------------------------------------|
|-----------------------------------------------------------------|
|--0-0-0-0-0-0-0-0-8-8-8-8-8-8-5-5-3-3-3-3-3-3-3-3-3-3-3-5-5-5-5--|
|--0-0-0-0-0-0-0-0-8-8-8-8-8-8-5-5-3-3-3-3-3-3-3-3-2-2-2-5-5-5-5--|


|-------------------------------------------------------------------|
|-------------------------------------------------------------------|
|-------------------------------------------------------------------|
|-------------------------------------------------------------------|
|--0-0-0-0-0-0-0-0-8-8-8-8-8-5-5-5-0-0-0-0-0-0-0-0-8-8-8-8-8101010--|
|--0-0-0-0-0-0-0-0-8-8-8-8-8-5-5-5-0-0-0-0-0-0-0-0-8-8-8-8-8101010--|
|                                                                   |
|-------------------------------------------------------------------|
|-------------------------------------------------------------------|
|-------------------------------------------------------------------|
|-------------------------------------------------------------------|
|--0-0-0-0-0-0-0-0-1-1-1-1-1-0-0-0-0-0-0-0-0-0-0-0-1-1-1-1-1-3-3-3--|
|--0-0-0-0-0-0-0-0-3-3-3-3-3-2-2-2-0-0-0-0-0-0-0-0-3-3-3-3-3-5-5-5--|



|-----------------------------------------------------------------|
|-----------------------------------------------------------------|
|-----------------------------------------------------------------|
|-----------------------------------------------------------------|
|--0-0-0-0-0-0-0-0-8-8-8-8-8-8-5-5-3-3-3-3-3-3-3-3-3-3-3-5-5-5-5--|
|--0-0-0-0-0-0-0-0-8-8-8-8-8-8-5-5-3-3-3-3-3-3-3-3-2-2-2-5-5-5-5--|
|                                                                 |
|-----------------------------------------------------------------|
|-----------------------------------------------------------------|
|-----------------------------------------------------------------|
|-----------------------------------------------------------------|
|--0-0-0-0-0-0-0-0-8-8-8-8-8-8-5-5-3-3-3-3-3-3-3-3-3-3-3-5-5-5-5--|
|--0-0-0-0-0-0-0-0-8-8-8-8-8-8-5-5-3-3-3-3-3-3-3-3-2-2-2-5-5-5-5--|


|-------------------------------------------------------------------|
|--5-------------6---3-------------5-----------6---3----------------|
|-------------------------------------------------------------------|
|-------------------------------------------------------------------|
|-------------------------------------------------------------------|
|-------------------------------------------------------------------|
|                                                                   |
|-------------------------------------------------------------------|
|-------------------------------------------------------------------|
|-------------------------------------------------------------------|
|--2-2-2-2-2-2-2-2-2-0-0-0-0-0-0-0-2-2-2-2-2-2-2-2-0-0-0-0-0-0-0-0--|
|--3-3-3-3-3-3-3-3-3-1-1-1-1-1-1-1-3-3-3-3-3-3-3-3-1-1-1-1-1-1-1-1--|
|--5-5-5-5-5-5-5-5-3-3-3-3-3-3-3-3-5-5-5-5-5-5-5-5-3-3-3-3-3-3-3-3--|


|-------------------------------------------------------------------|
|--5-----------6---3-------1-------3--------------------------------|
|-------------------------------------------------------------------|
|--------------------------------------------------------------2----|
|-------------------------------------------------------------------|
|-------------------------------------------------------------------|
|                                                                   |
|-------------------------------------------------------------------|
|-------------------------------------------------------------------|
|-------------------------------------------------------------------|
|--2-2-2-2-2-2-2-2-0-0-0-0------------------------------------------|
|--3-3-3-3-3-3-3-3-1-1-1-1-0-0-0-0-0-0-0-0-0-0-0-0-0-0-0-0-0-1-1-0--|
|--5-5-5-5-5-5-5-5-3-3-3-3-2-2-2-2-0-0-0-0-0-0-0-0-0-0-0-0-0-3-3-2--|


|-------------------------------------------------------------------|
|-------------------------------------------------------------------|
|-------------------------------------------------------------------|
|--3-----2-3-----2-3---2---0---------------------------3---2--------|
|------------------------------3---1-----0-1-----0-1----------------|
|-------------------------------------------------------------------|
|                                                                   |
|-------------------------------------------------------------------|
|-------------------------------------------------------------------|
|-------------------------------------------------------------------|
|-------------------------------------------------------------------|
|--5-5-5-3-5-5-5-3-5-5-3-3-5-5-3-3-1-1-1-0-1-1-1-0-1-1-1-1-3-3-3-3--|
|--7-7-7-5-7-7-7-5-7-7-5-5-7-7-5-5-3-3-3-2-3-3-3-2-3-3-3-3-5-5-5-5--|


|-------------------------------------------------------------------|
|-------------------------------------------------------------------|
|-------------------------------------------------------------------|
|--3-----2-3-----2-3---2---0---------------------------3---2--------|
|------------------------------3---1-----0-1-----0-1----------------|
|-------------------------------------------------------------------|
|                                                                   |
|-------------------------------------------------------------------|
|-------------------------------------------------------------------|
|-------------------------------------------------------------------|
|-------------------------------------------------------------------|
|--5-5-5-3-5-5-5-3-5-5-3-3-5-5-3-3-1-1-1-0-1-1-1-0-1-1-1-1-3-3-3-3--|
|--7-7-7-5-7-7-7-5-7-7-5-5-7-7-5-5-3-3-3-2-3-3-3-2-3-3-3-3-5-5-5-5--|


|-------------------------------------------------------------------|
|--6-----5-6-----5-6---5---3---------------------------6---5--------|
|------------------------------5---3-----2-3-----2-3----------------|
|-------------------------------------------------------------------|
|-------------------------------------------------------------------|
|-------------------------------------------------------------------|
|                                                                   |
|-------------------------------------------------------------------|
|-------------------------------------------------------------------|
|-------------------------------------------------------------------|
|-------------------------------------------------------------------|
|--5-5-5-3-5-5-5-3-5-5-3-3-5-5-3-3-1-1-1-0-1-1-1-0-1-1-1-1-3-3-3-3--|
|--7-7-7-5-7-7-7-5-7-7-5-5-7-7-5-5-3-3-3-2-3-3-3-2-3-3-3-3-5-5-5-5--|


|-------------------------------------------------------------------|
|--6-----5-6-----5-6---5---3---------------------------6---5--------|
|------------------------------5---3-----2-3-----2-3----------------|
|-------------------------------------------------------------------|
|-------------------------------------------------------------------|
|-------------------------------------------------------------------|
|                                                                   |
|-------------------------------------------------------------------|
|-------------------------------------------------------------------|
|-------------------------------------------------------------------|
|-------------------------------------------------------------------|
|--5-5-5-3-5-5-5-3-5-5-3-3-5-5-3-3-1-1-1-0-1-1-1-0-1-1-1-1-3-3-3-3--|
|--7-7-7-5-7-7-7-5-7-7-5-5-7-7-5-5-3-3-3-2-3-3-3-2-3-3-3-3-5-5-5-5--|


|-------------------------------------------------------------------|
|-------------------------------------------------------------------|
|-------------------------------------------------------------------|
|-------------------------------------------------------------------|
|--3-------------3-5-------3-------5--------------------------------|
|-------------------------------------------------------------------|
|                                                                   |
|-------------------------------------------------------------------|
|-------------------------------------------------------------------|
|-------------------------------------------------------------------|
|--3-3-3-3-3-3-3-2-3-3-3-3-2-2-2-2----------------------------------|
|--5-5-5-5-5-5-5-3-5-5-5-5-3-3-3-3-0-0-0-0-0-0-0-0-0-0-0-0-0-1-1-0--|
|--7-7-7-7-7-7-7-5-7-7-7-7-5-5-5-5-0-0-0-0-0-0-0-0-0-0-0-0-0-3-3-2--|


|-------------------------------------------------------------------|
|-------------------------------------------------------------------|
|-------------------------------------------------------------------|
|-------------------------------------------------------------------|
|--0-0-0-0-0-0-0-0-8-8-8-8-8-5-5-5-0-0-0-0-0-0-0-0-8-8-8-8-8101010--|
|--0-0-0-0-0-0-0-0-8-8-8-8-8-5-5-5-0-0-0-0-0-0-0-0-8-8-8-8-8101010--|
|                                                                   |
|-------------------------------------------------------------------|
|-------------------------------------------------------------------|
|-------------------------------------------------------------------|
|-------------------------------------------------------------------|
|--0-0-0-0-0-0-0-0-1-1-1-1-1-0-0-0-0-0-0-0-0-0-0-0-1-1-1-1-1-3-3-3--|
|--0-0-0-0-0-0-0-0-3-3-3-3-3-2-2-2-0-0-0-0-0-0-0-0-3-3-3-3-3-5-5-5--|


|-----------------------------------------------------------------|
|-----------------------------------------------------------------|
|-----------------------------------------------------------------|
|-----------------------------------------------------------------|
|--0-0-0-0-0-0-0-0-8-8-8-8-8-8-5-5-3-3-3-3-3-3-3-3-3-3-3-5-5-5-5--|
|--0-0-0-0-0-0-0-0-8-8-8-8-8-8-5-5-3-3-3-3-3-3-3-3-2-2-2-5-5-5-5--|
|                                                                 |
|-----------------------------------------------------------------|
|-----------------------------------------------------------------|
|-----------------------------------------------------------------|
|-----------------------------------------------------------------|
|--0-0-0-0-0-0-0-0-8-8-8-8-8-8-5-5-3-3-3-3-3-3-3-3-3-3-3-5-5-5-5--|
|--0-0-0-0-0-0-0-0-8-8-8-8-8-8-5-5-3-3-3-3-3-3-3-3-2-2-2-5-5-5-5--|

|-------------------------------------------------------------------|
|-------------------------------------------------------------------|
|-------------------------------------------------------------------|
|-------------------------------------------------------------------|
|--0-0-0-0-0-0-0-0-8-8-8-8-8-5-5-5-0-0-0-0-0-0-0-0-8-8-8-8-8101010--|
|--0-0-0-0-0-0-0-0-8-8-8-8-8-5-5-5-0-0-0-0-0-0-0-0-8-8-8-8-8101010--|
|                                                                   |
|-------------------------------------------------------------------|
|-------------------------------------------------------------------|
|-------------------------------------------------------------------|
|-------------------------------------------------------------------|
|--0-0-0-0-0-0-0-0-1-1-1-1-1-0-0-0-0-0-0-0-0-0-0-0-1-1-1-1-1-3-3-3--|
|--0-0-0-0-0-0-0-0-3-3-3-3-3-2-2-2-0-0-0-0-0-0-0-0-3-3-3-3-3-5-5-5--|


|-----------------------------------------------------------------|
|-----------------------------------------------------------------|
|-----------------------------------------------------------------|
|-----------------------------------------------------------------|
|--0-0-0-0-0-0-0-0-8-8-8-8-8-8-5-5-3-3-3-3-3-3-3-3-3-3-3-5-5-5-5--|
|--0-0-0-0-0-0-0-0-8-8-8-8-8-8-5-5-3-3-3-3-3-3-3-3-2-2-2-5-5-5-5--|
|                                                                 |
|-----------------------------------------------------------------|
|-----------------------------------------------------------------|
|-----------------------------------------------------------------|
|-----------------------------------------------------------------|
|--0-0-0-0-0-0-0-0-8-8-8-8-8-8-5-5-3-3-3-3-3-3-3-3-3-3-3-5-5-5-5--|
|--0-0-0-0-0-0-0-0-8-8-8-8-8-8-5-5-3-3-3-3-3-3-3-3-2-2-2-5-5-5-5--|


|-------------------------------------------------------------------|
|--5-------------6---3-------------5-----------6---3----------------|
|-------------------------------------------------------------------|
|-------------------------------------------------------------------|
|-------------------------------------------------------------------|
|-------------------------------------------------------------------|
|                                                                   |
|-------------------------------------------------------------------|
|-------------------------------------------------------------------|
|-------------------------------------------------------------------|
|--2-2-2-2-2-2-2-2-2-0-0-0-0-0-0-0-2-2-2-2-2-2-2-2-0-0-0-0-0-0-0-0--|
|--3-3-3-3-3-3-3-3-3-1-1-1-1-1-1-1-3-3-3-3-3-3-3-3-1-1-1-1-1-1-1-1--|
|--5-5-5-5-5-5-5-5-3-3-3-3-3-3-3-3-5-5-5-5-5-5-5-5-3-3-3-3-3-3-3-3--|


|-------------------------------------------------------------------|
|--5-----------6---3-------1-------3--------------------------------|
|-------------------------------------------------------------------|
|-------------------------------------------------------------------|
|-------------------------------------------------------------------|
|-------------------------------------------------------------------|
|                                                                   |
|-------------------------------------------------------------------|
|-------------------------------------------------------------------|
|-------------------------------------------------------------------|
|--2-2-2-2-2-2-2-2-0-0-0-0------------------------------------------|
|--3-3-3-3-3-3-3-3-1-1-1-1-0-0-0-0-0-0-0-0-0-0-0-0-0-0-0-0-0-0-0-0--|
|--5-5-5-5-5-5-5-5-3-3-3-3-2-2-2-2-0-0-0-0-0-0-0-0-0-0-0-0-0-0-0-0--|


|-------------------------------------------------------------------|
|--5-------------6---3-------------5-----------6---3----------------|
|-------------------------------------------------------------------|
|-------------------------------------------------------------------|
|-------------------------------------------------------------------|
|-------------------------------------------------------------------|
|                                                                   |
|-------------------------------------------------------------------|
|-------------------------------------------------------------------|
|-------------------------------------------------------------------|
|--2-2-2-2-2-2-2-2-2-0-0-0-0-0-0-0-2-2-2-2-2-2-2-2-0-0-0-0-0-0-0-0--|
|--3-3-3-3-3-3-3-3-3-1-1-1-1-1-1-1-3-3-3-3-3-3-3-3-1-1-1-1-1-1-1-1--|
|--5-5-5-5-5-5-5-5-3-3-3-3-3-3-3-3-5-5-5-5-5-5-5-5-3-3-3-3-3-3-3-3--|


|-----------------------------------|
|--5-----------6---3-------1--------|
|-----------------------------------|
|-----------------------------------|
|-----------------------------------|
|-----------------------------------|
|                                   |
|-----------------------------------|
|-----------------------------------|
|-----------------------------------|
|--2-2-2-2-2-2-2-2-0-0-0-0----------|
|--3-3-3-3-3-3-3-3-1-1-1-1-0-0-0-0--|
|--5-5-5-5-5-5-5-5-3-3-3-3-2-2-2-2--|


|-------------------------------------------------------------------|
|--6-6-6-3-5-5-5-1-3---------------6-----3-5-5-5-1-3----------------|
|---------------------2---------------------------------------------|
|-------------------------------------------------------------------|
|-------------------------------------------------------------------|
|-------------------------------------------------------------------|
|                                                                   |
|-------------------------------------------------------------------|
|-------------------------------------------------------------------|
|-------------------------------------------------------------------|
|-------------------------------------------------------------------|
|--8-8-8-8-7-7-7-7-0-0-0-0-0-0-0-0-8-8-8-8-7-7-7-7-0-0-0-0-0-0-0-0--|
|--8-8-8-8-7-7-7-7-0-0-0-0-0-0-0-0-8-8-8-8-7-7-7-7-0-0-0-0-0-0-0-0--|


|-------------------------------------------------------------------|
|--6-6-6-3-5-5-5-1-3---------------6-----3-5-5-5-1-3----------------|
|---------------------2---------------------------------------------|
|-------------------------------------------------------------------|
|-------------------------------------------------------------------|
|-------------------------------------------------------------------|
|                                                                   |
|-------------------------------------------------------------------|
|-------------------------------------------------------------------|
|-------------------------------------------------------------------|
|--------------------------------------------------0-0-0-0-0-0-0-0--|
|--8-8-8-8-7-7-7-7-0-0-0-0-0-0-0-0-1-1-1-1-3-3-3-3-0-0-0-0-0-0-0-0--|
|--8-8-8-8-7-7-7-7-0-0-0-0-0-0-0-0-3-3-3-3-2-2-2-2-0-0-0-0-0-0-0-0--|


|-------------------------------------------------------------------|
|--6-6-6-3-5-5-5-1-3---------------6-----3-5-5-5-1-3----------------|
|---------------------2---------------------------------------------|
|-------------------------------------------------------------------|
|-------------------------------------------------------------------|
|-------------------------------------------------------------------|
|                                                                   |
|-------------------------------------------------------------------|
|-------------------------------------------------------------------|
|-------------------------------------------------------------------|
|-------------------------------------------------------------------|
|--8-8-8-8-7-7-7-7-0-0-0-0-0-0-0-0-8-8-8-8-7-7-7-7-0-0-0-0-0-0-0-0--|
|--8-8-8-8-7-7-7-7-0-0-0-0-0-0-0-0-8-8-8-8-7-7-7-7-0-0-0-0-0-0-0-0--|


|-------------------------------------------------------------------|
|--6-6-6-3-5-5-5-1-3---------------6------5--------3----------------|
|---------------------2---------------------------------------------|
|-------------------------------------------------------------------|
|-------------------------------------------------------------------|
|-------------------------------------------------------------------|
|                                                                   |
|-------------------------------------------------------------------|
|-------------------------------------------------------------------|
|-------------------------------------------------------------------|
|--------------------------------------------------0----------------|
|--8-8-8-8-7-7-7-7-0-0-0-0-0-0-0-0-1-1-----3-3-----0----------------|
|--8-8-8-8-7-7-7-7-0-0-0-0-0-0-0-0-3-3-----2-2-----0----------------|









Добавлено: 29.07.2012
Другие материалы по этой песне:

Страница создана 23.04.2012
http://primanota.ru/timo-rautiainen-trio-niskalaukaus/elegia-chords.htm
Привет, Гость.
Предлагаем пройти революционный курс по гитаре.
Подарок от PrimaNota.Ru, забирай!