PrimaNota.ru - самый крупный в мире бесплатный архив песенных текстов, аккордов, табулатур и нот


Timo Maas - First Day (feat. Brian Molko) - текст песни, таба, видео

Регистрация Запомнить меня
Войти через:  Facebook Google Twitter Vk Yandex Mail.ru

Timo Maas - First Day (feat. Brian Molko) - текст песни, таба, видео

Печатать
Просмотров: 523
-------------------------------------------------------------------------------
                             SONG NAME - Band Name
-------------------------------------------------------------------------------
Tabbed by:
E-mail:

Tuning:

e|-------------------------------------------------------------------------------------|
B|-------------------------------------------------------------------------------------|
G|---------8----------8-----------------7--------7-------------------------------------|
D|-------8---------8---------8-------7---------7--------7--------5--------5------------|
A|----6---------6---------6-------5---------5--------5--------5--------5---------------|
E|---------------------------------------------------------3--------3------------------|

e|---------------------------------------------------------------------------------|
B|---------------------------------------------------------------------------------|
G|---------------------------------------------------------------------------------|
D|--------5--------5-------5-------------------------------------------------------|
A|-----5--------5-------5----------------------------------------------------------|
E|--3--------3-------3--------3----------------------------------------------------|

e|-------------------------------------------------------------------------------------|
B|-------------------------------------------------------------------------------------|
G|---------8---------8---------8---------7---------7---------7-----------12------------|
D|------8---------8---------8---------7---------7---------7----------12----------------|
A|---6---------6---------6---------5---------5---------5---------10--------------------|
E|-------------------------------------------------------------------------------------|

************************************

| /   slide up
| \   slide down
| h   hammer-on
| p   pull-off
| ~   vibrato
| +   harmonic
| x   Mute note
| b   Bend
| pb  Pre-bend
| br  Bend release
| pbr Pre-bend release
| brb Bend release bend

************************************
Добавлено: 15.08.2015
Вам также может быть интересно:
Другие материалы по этой песне:

Страница создана 19.03.2012
http://primanota.ru/timo-maas/first-day-chords.htm
Привет, Гость.
Предлагаем пройти революционный курс по гитаре.
Подарок от PrimaNota.Ru, забирай!