PrimaNota.ru - самый крупный в мире бесплатный архив песенных текстов, аккордов, табулатур и нот


Times Of Grace - The Forgotten One - таба, видео

Регистрация Запомнить меня
Войти через:  Facebook Google Twitter Vk Yandex Mail.ru

Times Of Grace - The Forgotten One - таба, видео

Печатать
Просмотров: 203
-------------------------------------------------------------------------------
		     The Forgotten One - Times of Grace
-------------------------------------------------------------------------------
Tabbed by: Songsterr

Tuning: Drop D

Timing and everything is way off, so you'll have to listen carefully while playing.

e|-------------------0----0----0---------------------3--3--------------------|
B|-------------------3----3----3---------------------3--3--5---5-5-5---------|
G|-------------------2----2----2---------------------5--5--5---5-5-5---------|
D|--3-0--------------0----0----0----3-0--------------5--5--5---5-5-5---------|
A|------0-3-0---------------------------0-3-0--------3--3--2-3-3-3-3-0-------|
D|------------3-0-----------------------------3-0----------------------3-----|

e|---------------------------------------------------------------------------|
B|----------------------------6-5-3---6-5-3---3-5-6-8--10--------------------|
G|----------------------7-7-----------------5--------------------------------|
D|--3-0-------------7--------------------------------------------------------|
A|------0-3-0----------------------------------------------------------------|
D|------------3-0------------------------------------------------------------|

e|-12-13-10-12----10---------------------------------------------------------|
B|-------------13----10-13----------------13---------------------------------|
G|-------------------------10-12-10-12-14----12---10-12-10-9-10-9---5-9--7-5-|
D|----------------------------------------------------------------7----------|
A|---------------------------------------------------------------------------|
D|---------------------------------------------------------------------------|

e|-------------------0----0----0--------------------3-3----------------------|
B|-------------------3----3----3--------------------3-3----5---5-5-5---------|
G|--7----------------2----2----2--------------------5-5----5---5-5-5---------|
D|--3-0--------------0----0----0---3-0--------------5-5----5---5-5-5---------|
A|------0-3-0--------------------------0-3-0--------3-3----2-3-3-3-3-0-------|
D|------------3-0----------------------------3-0-----------------------3-----|

e|-------------------0----0----0--------------------3-3----------------------|
B|-------------------3----3----3--------------------3-3----5---5-5-5---------|
G|-------------------2----2----2--------------------5-5----5---5-5-5---------|
D|--3-0--------------0----0----0---3-0--------------5-5----5---5-5-5---------|
A|------0-3-0--------------------------0-3-0--------3-3----2-3-3-3-3-0-------|
D|------------3-0----------------------------3-0-----------------------3-----|

e|---------------------------------------------------------------------------|
B|--6-6-6-6-6-6-6-6--8-8-8-8-8-8-8-8--10-10-10-10-10-10-10-10----------------|
G|--7-7-7-7-7-7-7-7--9-9-9-9-9-9-9-9--10-10-10-10-10-10-10-10----------------|
D|---------------------------------------------------------------------------|
A|--5-5-5-5-5-5-5-5--7-7-7-7-7-7-7-7--8--8--8--8--8--8--8--8-----------------|
D|---------------------------------------------------------------------------|
									
e|---------------------------------------------------------------------------|
B|--11-11-11-11-11-11-11-11--------------------------------------------------|
G|--12-12-12-12-12-12-12-12--------------------------------------------------|
D|---------------------------------------------------------------------------|
A|--10-10-10-10-10-10-10-10--------------------------------------------------|
D|---------------------------------------------------------------------------|
			X2	
e|---------------------------------------------------------------------------|
B|---------------------------------------------------------------------------|
G|--9--10-10-10----3----3----3-3-5-5-5-5-5-5-5-------------------------------|
D|-----------------3----3----3-3-5-5-5-5-5-5-5--------------------------#1---|
A|--7--8--8--8-----1----1----1-1-3-3-3-3-3-3-3-------------------------------|
D|--0------------------------------------------------------------------------|

e|---------------------------------------------------------------------------|
B|---------------------------------------------------------------------------|
G|--9--10-10-10----3----3----------------------------------------------------|
D|-----------------3----3----3-3-5-5-5-5-3-3-3---------------do #1 again-----|
A|--7--8--8--8-----1----1----3-3-5-5-5-5-3-3-3-------------------------------|
D|--0------------------------3-3-5-5-5-5-3-3-3-------------------------------|

e|-------------------------------------------------0----0----0---------------|
B|-------------------------------------------------3----3----3---------------|
G|--9--10-10-10----3----3----5---------------------2----2----2---------------|
D|-----------------3----3----5----3-0--------------0----0----0--3-0----------|
A|--7--8--8--8-----1----1----3--------0-3-0-------------------------0-3-0----|
D|--0---------------------------------------3-0---------------------------3-0|

e|--3----3--------------------------------------0----0----0------------------|
B|--3----3----5---5-5-5-------------------------3----3----3------------------|
G|--5----5----5---5-5-5-------------------------2----2----2------------------|
D|--5----5----5---5-5-5--------3-0--------------0----0----0--3-0-------------|
A|--3----3----2-3-3-3-3-0----------0-3-0-------------------------0-3-0-------|
D|------------------------3--------------3-0---------------------------3-0---|

e|--3----3-------------------------------------------------------------------|
B|--3----3----5---5-5-5--------6-6-6-6-6-6-6-6--8-8-8-8-8-8-8-8--------------|
G|--5----5----5---5-5-5--------7-7-7-7-7-7-7-7--9-9-9-9-9-9-9-9--------------|
D|--5----5----5---5-5-5------------------------------------------------------|
A|--3----3----2-3-3-3-3-0------5-5-5-5-5-5-5-5--7-7-7-7-7-7-7-7--------------|
D|------------------------3--------------------------------------------------|

e|---------------------------------------------------------------------------|
B|--10-10-10-10-10-10-10-10--11-11-11-11-11-11-11-11-------------------------|
G|--10-10-10-10-10-10-10-10--12-12-12-12-12-12-12-12-------------------------|
D|---------------------------------------------------------------------------|
A|--8--8--8--8--8--8--8--8---10-10-10-10-10-10-10-10--X2---------------------|
D|---------------------------------------------------------------------------|

e|---------------------------------------------------------------------------|
B|---------------------------------------------------------------------------|
G|--9--10-10-10----3----3----3-3-5-5-5-5-5-5-5-------------------------------|
D|-----------------3----3----3-3-5-5-5-5-5-5-5--------------------------#1---|
A|--7--8--8--8-----1----1----1-1-3-3-3-3-3-3-3-------------------------------|
D|--0------------------------------------------------------------------------|

e|---------------------------------------------------------------------------|
B|---------------------------------------------------------------------------|
G|--9--10-10-10----3----3----------------------------------------------------|
D|-----------------3----3----3-3-5-5-5-5-3-3-3---------------do #1 again-----|
A|--7--8--8--8-----1----1----3-3-5-5-5-5-3-3-3-------------------------------|
D|--0------------------------3-3-5-5-5-5-3-3-3-------------------------------|

e|---------------------------------------------------------------------------|
B|---------------------------------------------------------------------------|
G|--9--10-10-10----3----3----5-----------------------------------------------|
D|-----------------3----3----5-----------------------------------------------|
A|--7--8--8--8-----1----1----3-----------------------------------------------|
D|--0------------------------------------------------------------------------|

e|---------------------------------------------------------------------------|
B|---------------------------------------------------------------------------|
G|---------------------------------------------------------------------------|
D|--5b-3-5-3--------------------------------------X3-------------------------|
A|-----------5-3-----5-------------------------------------------------------|
D|---------------3-5---5-3-3-5-3---------------------------------------------|

e|---------------------------------------------------------------------------|
B|---------------------------------------------------------------------------|
G|-----------------------------------------5-7-------------------------------|
D|--5b-3-5-3-----------------0-3-5-0-5-7-7-----------------------------------|
A|-----------5-3-------0-3-5-------------------------------------------------|
D|---------------0-3-5-------------------------------------------------------|

e|---------------------------------------------------------------------------|
B|---------------------------------------------------------------------------|
G|---------------------------------------------------------------------------|
D|--5b-3-5-3--------------------------------------X2-------------------------|
A|-----------5-3-----5-------------------------------------------------------|
D|---------------3-5---5-3-3-5-3---------------------------------------------|

e|--1----1-1-1-1-1-1----1-1-1-1-1-1-1-1----3-3-3-3-3-3-3-3----3-3-3-3-3------|
B|--1----1-1-1-1-1-1----1-1-1-1-1-1-1-1----3-3-3-3-3-3-3-3----3-3-3-3-3------|
G|--3----3-3-3-3-3-3----3-3-3-3-3-3-3-3----5-5-5-5-5-5-5-5----5-5-5-5-5------|
D|--3----3-3-3-3-3-3----3-3-3-3-3-3-3-3----5-5-5-5-5-5-5-5----5-5-5-5-5------|
A|--1----1-1-1-1-1-1----1-1-1-1-1-1-1-1----3-3-3-3-3-3-3-3----3-3-3-3-3------|
D|---------------------------------------------------------------------------|

e|---------------------------------------------------------------------------|
B|---------------------------------------------------------------------------|
G|--9--10-10-10----3----3----3-3-5-5-5-5-5-5-5-------------------------------|
D|-----------------3----3----3-3-5-5-5-5-5-5-5--------------------------#1---|
A|--7--8--8--8-----1----1----1-1-3-3-3-3-3-3-3-------------------------------|
D|--0------------------------------------------------------------------------|

e|---------------------------------------------------------------------------|
B|---------------------------------------------------------------------------|
G|--9--10-10-10----3----3----------------------------------------------------|
D|-----------------3----3----3-3-5-5-5-5-3-3-3---------------do #1 again-----|
A|--7--8--8--8-----1----1----3-3-5-5-5-5-3-3-3-------------------------------|
D|--0------------------------3-3-5-5-5-5-3-3-3-------------------------------|

e|---------------------------------------------------------------------------|
B|---------------------------------------------------------------------------|
G|--9--10-10-10----3----3----5-----------------------------------------------|
D|-----------------3----3----5-----------------------------------------------|
A|--7--8--8--8-----1----1----3-----------------------------------------------|
D|--0------------------------------------------------------------------------|

e|---------------------------------------------------------------------------|
B|---------------------------------------------------------------------------|
G|--9--10-10-10----3----3----3-3-5-5-5-5-5-5-5-------------------------------|
D|-----------------3----3----3-3-5-5-5-5-5-5-5--------------------------X3---|
A|--7--8--8--8-----1----1----1-1-3-3-3-3-3-3-3-------------------------------|
D|--0------------------------------------------------------------------------|

e|-------------------------------------------------0-------------------------|
B|-------------------------------------------------3-------------------------|
G|--9--10-10-10----3----3----5---------------------2-------------------------|
D|-----------------3----3----5----3-0--------------0-------------------------|
A|--7--8--8--8-----1----1----3--------0-3-0----------------------------------|
D|--0---------------------------------------3-0------------------------------|
Добавлено: 16.06.2012
Вам также может быть интересно:
Другие материалы по этой песне:

Страница создана 08.03.2012
http://primanota.ru/times-of-grace/the-forgotten-one-chords.htm
Привет, Гость.
Предлагаем пройти революционный курс по гитаре.
Подарок от PrimaNota.Ru, забирай!