PrimaNota.ru - самый крупный в мире бесплатный архив песенных текстов, аккордов, табулатур и нот


Time Tells All - Cliff Notes - таба, видео

Регистрация Запомнить меня
Войти через:  Facebook Google Twitter Vk Yandex Mail.ru

Time Tells All - Cliff Notes - таба, видео

Печатать
Просмотров: 104
Уроки эстрадного вокала в Санкт-Петербурге
-------------------------------------------------------------------------------
                        CLIFF NOTES - Time Tells All
-------------------------------------------------------------------------------
Tabbed by: Chantale
E-mail: chantale.martin350@hotmail.com

Tuning: Drop D

VERSE 1
Guitar 1
e|-----------------------------------------------------------------------|
B|-----------------------------------------------------------------------|
G|-----------------------------------------------------------------------|
D|---7-7-7-7-7-7-7-7-7-7-7-7-7-7-7-7--5-5-5-5-5-5-5-5--5-5-5-5-5-5-5-5---| x2
A|---7-7-7-7-7-7-7-7-7-7-7-7-7-7-7-7--7-7-7-7-7-7-7-7--5-5-5-5-5-5-5-5---|
E|---7-7-7-7-7-7-7-7-7-7-7-7-7-7-7-7--5-5-5-5-5-5-5-5--5-5-5-5-5-5-5-5---|
 PM  * * * * * * * * * * * * * * * *  * * * * * * * *  * * * * * * * *

Guitar 2
e|-----------------------------------------------------------------------|
B|-----------------------------------------------------------------------|
G|-----------------------------------------------------------------------|
D|-----------------------------------------------------------------------| x2
A|-----------------------------------------------------------------------|
E|-----------------------------------------------------------------------|


Guitar 1
e|-----------------------------------------------------------------------|
B|-----------------------------------------------------------------------|
G|-----------------------------------------------------------------------|
D|---7-7-7-7-7-7-7-7-7-7-7-7-7-7-7-7--5-5-5-5-5-5-5-5--5-5-5-5-5-5-5-5---| x2
A|---7-7-7-7-7-7-7-7-7-7-7-7-7-7-7-7--7-7-7-7-7-7-7-7--5-5-5-5-5-5-5-5---|
E|---7-7-7-7-7-7-7-7-7-7-7-7-7-7-7-7--5-5-5-5-5-5-5-5--5-5-5-5-5-5-5-5---|
 PM  * * * * * * * * * * * * * * * *  * * * * * * * *  * * * * * * * *

Guitar 2
e|-----------------------------------------------------------------------|
B|-----------------------------------------------------------------------|
G|-----------------------------------------------------------------------|
D|-----------------------------------------------------------------------| x2
A|---0-0---------0-2-3-3---------3-5-7-7---------7-7-5-5-----5-5---------|
E|---0-0---------0-2-3-3---------3-5-7-7---------7-7-5-5-----5-5---------|
 PM  * *         * * * *         * * * *         * * * *     * *

PRE-CHORUS
e|-----------------------------------------------------------------------|
B|-----------------------------------------------------------------------|
G|-----------------------------------------------------------------------|
D|---3-3-3-3-3-3-3-3-3-3-3-3-3-3-3-3--5-5-5-5-5-5-5-5--0-0-0-0-0-0-0-0---|
A|---3-3-3-3-3-3-3-3-3-3-3-3-3-3-3-3--5-5-5-5-5-5-5-5--0-0-0-0-0-0-0-0---|
E|---3-3-3-3-3-3-3-3-3-3-3-3-3-3-3-3--5-5-5-5-5-5-5-5--0-0-0-0-0-0-0-0---|
 PM  * * * * * * * * * * * * * * * *  * * * * * * * *  * * * * * * * *

e|-----------------------------------------------------------------------|
B|-----------------------------------------------------------------------|
G|-----------------------------------------------------------------------|
D|---3-3-3-3-3-3-3-3-3-3-3-3-3-3-3-3--5-5-5-5-5-5-5-5--0-----------------|
A|---3-3-3-3-3-3-3-3-3-3-3-3-3-3-3-3--5-5-5-5-5-5-5-5--0-----------------|
E|---3-3-3-3-3-3-3-3-3-3-3-3-3-3-3-3--5-5-5-5-5-5-5-5--0-----------------|
 PM  * * * * * * * * * * * * * * * *  * * * *

CHORUS
e|-----------------------------------------------------------------------|
B|-----------------------------------------------------------------------|
G|-----------5---------------5-------------------------------------------|
D|-------5-----5---------5-----5---------5---5-5-5--5-5-0---0-0-0--0-0---|
A|---------3-------3-------3-------3-----5---5-5-5--5-5-0---0-0-0--0-0---|
E|---3-----------3---3-----------3---3---5---5-5-5--5-5-0---0-0-0--0-0---|

e|-----------------------------------------------------------------------|
B|-----------------------------------------------------------------------|
G|-----------5-5-5-5---------5-5-5-5----------7-7-7-7--------------------|
D|---3-3-3-3-5-5-5-5-3-3-3-3-5-5-5-5--5-5-5-5-7-7-7-7--0-0-0-0-0-0-0-0---|
A|---3-3-3-3-3-3-3-3-3-3-3-3-3-3-3-3--5-5-5-5-5-5-5-5--0-0-0-0-0-0-0-0---|
E|---3-3-3-3-3-3-3-3-3-3-3-3-3-3-3-3--5-5-5-5-5-5-5-5--0-0-0-0-0-0-0-0---|

INTERLUDE
Guitar 1
e|-----------------------------------------------------------------------|
B|-----------------------------------------------------------------------|
G|-----------------------------------------------------------------------|
D|---7-7-7-7-7-7-7-7-7-7-7-7-7-7-7-7--5-5-5-5-5-5-5-5--5-5-5-5-5-5-5-5---| 
A|---7-7-7-7-7-7-7-7-7-7-7-7-7-7-7-7--7-7-7-7-7-7-7-7--5-5-5-5-5-5-5-5---|
E|---7-7-7-7-7-7-7-7-7-7-7-7-7-7-7-7--5-5-5-5-5-5-5-5--5-5-5-5-5-5-5-5---|
 PM  * * * * * * * * * * * * * * * *  * * * * * * * *  * * * * * * * *

VERSE 2
Guitar 1
e|-----------------------------------------------------------------------|
B|-----------------------------------------------------------------------|
G|-----------------------------------------------------------------------|
D|---7-7-7-7-7-7-7-7-7-7-7-7-7-7-7-7--5-5-5-5-5-5-5-5--5-5-5-5-5-5-5-5---| x4
A|---7-7-7-7-7-7-7-7-7-7-7-7-7-7-7-7--7-7-7-7-7-7-7-7--5-5-5-5-5-5-5-5---|
E|---7-7-7-7-7-7-7-7-7-7-7-7-7-7-7-7--5-5-5-5-5-5-5-5--5-5-5-5-5-5-5-5---|
 PM  * * * * * * * * * * * * * * * *  * * * * * * * *  * * * * * * * *

Guitar 2
e|-----------------------------------------------------------------------|
B|-----------------------------------------------------------------------|
G|-----------------------------------------------------------------------|
D|-----------------------------------------------------------------------| x4
A|---0-0---------0-2-3-3---------3-5-7-7---------7-7-5-5-----5-5---------|
E|---0-0---------0-2-3-3---------3-5-7-7---------7-7-5-5-----5-5---------|
 PM  * *         * * * *         * * * *         * * * *     * *

PRE-CHORUS
e|-----------------------------------------------------------------------|
B|-----------------------------------------------------------------------|
G|-----------------------------------------------------------------------|
D|---3-3-3-3-3-3-3-3-3-3-3-3-3-3-3-3--5-5-5-5-5-5-5-5--0-0-0-0-0-0-0-0---|
A|---3-3-3-3-3-3-3-3-3-3-3-3-3-3-3-3--5-5-5-5-5-5-5-5--0-0-0-0-0-0-0-0---|
E|---3-3-3-3-3-3-3-3-3-3-3-3-3-3-3-3--5-5-5-5-5-5-5-5--0-0-0-0-0-0-0-0---|
 PM  * * * * * * * * * * * * * * * *  * * * * * * * *  * * * * * * * *

e|-----------------------------------------------------------------------|
B|-----------------------------------------------------------------------|
G|-----------------------------------------------------------------------|
D|---3-3-3-3-3-3-3-3-3-3-3-3-3-3-3-3--5-5-5-5-5-5-5-5--0-----------------|
A|---3-3-3-3-3-3-3-3-3-3-3-3-3-3-3-3--5-5-5-5-5-5-5-5--0-----------------|
E|---3-3-3-3-3-3-3-3-3-3-3-3-3-3-3-3--5-5-5-5-5-5-5-5--0-----------------|
 PM  * * * * * * * * * * * * 

CHORUS
e|-----------------------------------------------------------------------|
B|-----------------------------------------------------------------------|
G|-----------5---------------5-------------------------------------------|
D|-------5-----5---------5-----5---------5---5-5-5--5-5-0---0-0-0--0-0---|
A|---------3-------3-------3-------3-----5---5-5-5--5-5-0---0-0-0--0-0---|
E|---3-----------3---3-----------3---3---5---5-5-5--5-5-0---0-0-0--0-0---|

e|-----------------------------------------------------------------------|
B|-----------------------------------------------------------------------|
G|-----------5-5-5-5---------5-5-5-5----------7-7-7-7--------------------|
D|---3-3-3-3-5-5-5-5-3-3-3-3-5-5-5-5--5-5-5-5-7-7-7-7--0-0-0-0-0-0-0-0---|
A|---3-3-3-3-3-3-3-3-3-3-3-3-3-3-3-3--5-5-5-5-5-5-5-5--0-0-0-0-0-0-0-0---|
E|---3-3-3-3-3-3-3-3-3-3-3-3-3-3-3-3--5-5-5-5-5-5-5-5--0-0-0-0-0-0-0-0---|

BRIDGE
Guitar 1
e|-----------------------------------------------------------------------|
B|-------------------6-6-6-6-6-6-6-6--3-3-3-3-3-3-3-3--1-1-1-1-1-1-1-1---|
G|---5-5-5-5-5-5-5-5-----------------------------------------------------|
D|-----------------------------------------------------------------------|
A|-----------------------------------------------------------------------|
E|-----------------------------------------------------------------------|
 PM  * * * * * * * * * * * * * * * *  * * * * * * * *  * * * * * * * *

Guitar 2
e|-----------------------------------------------------------------------|
B|-----------------------------------------------------------------------|
G|-----------------------------------------------------------------------|
D|-----------------------------------------------------------------------|
A|-----------------------------------------------------------------------|
E|-----------------------------------------------------------------------|


Guitar 1
e|-----------------------------------------------------------------------|
B|-------------------6-6-6-6-6-6-6-6--3-3-3-3-3-3-3-3--1-1-1-1-1-1-1-1---|
G|---5-5-5-5-5-5-5-5-----------------------------------------------------|
D|-----------------------------------------------------------------------|
A|-----------------------------------------------------------------------|
E|-----------------------------------------------------------------------|
 PM  * * * * * * * * * * * * * * * *  * * * * * * * *  * * * * * * * *

Guitar 2
e|-----------------------------------------------------------------------|
B|-----------------------------------------------------------------------|
G|-----------------------------------------------------------------------|
D|---10--10--10--10--7---7---7---7---5---5---5---5---3---3---3---3-------|
A|---7---7---7---7---7---7---7---7---3---3---3---3---3---3---3---3-------|
E|---7---7---7---7---7---7---7---7---3---3---3---3---3---3---3---3-------|


Guitar 1
e|-----------------------------------------------------------------------|
B|-------------------6-6-6-6-6-6-6-6--3-3-3-3-3-3-3-3--1-1-1-1-1-1-1-1---|
G|---5-5-5-5-5-5-5-5-----------------------------------------------------|
D|-----------------------------------------------------------------------|
A|-----------------------------------------------------------------------|
E|-----------------------------------------------------------------------|
 PM  * * * * * * * * * * * * * * * *  * * * * * * * *  * * * * * * * *

Guitar 2
e|-----------------------------------------------------------------------|
B|-----------------------------------------------------------------------|
G|---5---5---5---5---5---5---5---5---------------------------------------|
D|---5---5---5---5---5---5---5---5----5---5---5---5---3---3---3---3------|
A|---3---3---3---3---3---3---3---3----3---3---3---3---3---3---3---3------|
E|------------------------------------3---3---3---3---3---3---3---3------|

BUILDUP
Guitar 1
e|-----------------------------------------------------------------------|
B|-----------------------------------------------------------------------|
G|-----------------------------------------------------------------------|
D|---3-3-3-3-3-3-3-3-3-3-3-3-3-3-3-3--5-5-5-5-5-5-5-5-5-5-5-5-5-5-5-5----|
A|---3-3-3-3-3-3-3-3-3-3-3-3-3-3-3-3--5-5-5-5-5-5-5-5-5-5-5-5-5-5-5-5----|
E|---3-3-3-3-3-3-3-3-3-3-3-3-3-3-3-3--5-5-5-5-5-5-5-5-5-5-5-5-5-5-5-5----|
 PM  * * * * * * * * * * * * * * * *  * * * * * * * * * * * * * * * *

e|-----------------------------------------------------------------------|
B|-----------------------------------------------------------------------|
G|-----------------------------------------------------------------------|
D|---3-3-3-3-3-3-3-3-3-3-3-3-3-3-3-3--5-5-5-5-5-5-5-5-5------------------|
A|---3-3-3-3-3-3-3-3-3-3-3-3-3-3-3-3--5-5-5-5-5-5-5-5-5------------------|
E|---3-3-3-3-3-3-3-3-3-3-3-3-3-3-3-3--5-5-5-5-5-5-5-5-5------------------|
 PM  * * * * * * * * * * * * * * * *  * * * * 

e|-----------------------------------------------------------------------|
B|-----------------------------------------------------------------------|
G|-----------------------------------------------------------------------|
D|---3-3-3-3-3-3-3-3-3-3-3-3-3-3-3-3--5-5-5-5-5-5-5-5-5-5-5-5-5-5-5-5----| x2
A|---3-3-3-3-3-3-3-3-3-3-3-3-3-3-3-3--5-5-5-5-5-5-5-5-5-5-5-5-5-5-5-5----|
E|---3-3-3-3-3-3-3-3-3-3-3-3-3-3-3-3--5-5-5-5-5-5-5-5-5-5-5-5-5-5-5-5----|

SOLO
Guitar 1
e|-----------------------------------------------------------------------|
B|-----------------------------------------------------------------------|
G|-----------------------------------------------------------------------|
D|---3-3-3-3-3-3-3-3-3-3-3-3-3-3-3-3--5-5-5-5-5-5-5-5-5-5-5-5-5-5-5-5----| x4
A|---3-3-3-3-3-3-3-3-3-3-3-3-3-3-3-3--5-5-5-5-5-5-5-5-5-5-5-5-5-5-5-5----|
E|---3-3-3-3-3-3-3-3-3-3-3-3-3-3-3-3--5-5-5-5-5-5-5-5-5-5-5-5-5-5-5-5----|

Guitar 2 
e|---/12-------------------------------15---12---------------------------|
B|---------13---12b13b12------10-12-13----------13-13b15b13--------------|
G|-----------------------12----------------------------------------------|
D|-----------------------------------------------------------------------|
A|-----------------------------------------------------------------------|
E|-----------------------------------------------------------------------|

e|----------------------15-12--------------------------------------------|
B|---13-----13b1513---------------13-12h13p12----------------------------|
G|-------12----------12-------12--------------12--9-12-9-----------------|
D|-------------------------------------------------------12-10-10-9-10---|
A|-----------------------------------------------------------------------|
E|-----------------------------------------------------------------------|

e|-----------------------------------------------------------------------|
B|-----------------------------------------------------------------------|
G|-------------12-9-------------------------9--12-9----------------------|
D|---------10------------------------10--12---------12-10----------------|
A|-----------------------------------------------------------------------|
E|-----------------------------------------------------------------------|

e|-----------------------------------------------------------------------|
B|-----------------------------------------------------------------------|
G|----------------12-9---------------13/15\13/15-------------------------|
D|---------10--12--------------------------------12----------------------|
A|-----------------------------------------------------------------------|
E|-----------------------------------------------------------------------|

OUTRO
e|-----------------------------------------------------------------------|
B|-----------------------------------------------------------------------|
G|-----------5---------------5----------------7--------------------------|
D|---3---3---5-------3---3---5--------5---5---7--------0-0-0-0-0-0-0-0---| x4
A|---3---3---3-------3---3---3--------5---5---5--------0-0-0-0-0-0-0-0---|
E|---3---3---3-------3---3---3--------5---5---5--------0-0-0-0-0-0-0-0---|

End on
e|-------|
B|-------|
G|-------|
D|---0---|
A|---0---|
E|---0---|

************************************

| /   slide up
| \   slide down
| h   hammer-on
| p   pull-off
| ~   vibrato
| +   harmonic
| x   Mute note
| b   Bend
| pb  Pre-bend
| br  Bend release
| pbr Pre-bend release
| brb Bend release bend
| *   palm mute

************************************
Добавлено: 04.05.2016
Вам также может быть интересно:
Другие материалы по этой песне:
  • Аккорды и текст

Страница создана 04.05.2016
http://primanota.ru/time-tells-all/cliff-notes-chords.htm
Привет, Гость.
Предлагаем пройти революционный курс по гитаре.
Подарок от PrimaNota.Ru, забирай!