PrimaNota.ru - самый крупный в мире бесплатный архив песенных текстов, аккордов, табулатур и нот


Time Again - Cold Concrete - текст песни, таба, видео

Регистрация Запомнить меня
Войти через:  Facebook Google Twitter Vk Yandex Mail.ru

Time Again - Cold Concrete - текст песни, таба, видео

Печатать
Просмотров: 136
Уроки эстрадного вокала в Санкт-Петербурге
pm.../{}= palm mute

^ = bend

(intro):
-------------------        --------------------'
-------------------        --------------------'
-------------------        --------------------'
7-7-7-7-7--9-9-9-9-  (x3)  7-7-7-7-7--9-9-9-9--'
7-7-7-7-7--7-7-7-7-        5-5-5-5-5--7-7-7-7--'
5-5-5-5-5----------        --------------------'                                         
                                  (chorus):
-----------------------------------------------'
-----------------------------------------------'
-----------------------------------------------'
-----------------------------------------------'  (x4)
7-7-7-7--9-9-9-9--12-12-12-12--7-7-7-7---------'
5-5-5-5--7-7-7-7--10-10-10-10--5-5-5-5---------'

(verse):
----------------------------|
----------------------------|
----------------------------|  (x4)
----------------------------|
7-0-0--9-0-0--12-0-0--7-0-0-|
5-0-0--7-0-0--10-0-0--5-0-0-|

------------------------------------------'
------------------------------------------'
------------------------------------------'
------------------------------------------'
7-7-7-7--9-9-9-9--12-12-12-12-12-12-12-12-'
5-5-5-5--7-7-7-7--10-10-10-10-10-10-10-10-'

---------------------------------------'
---------------------------------------'
---------------------------------------'
---------------------------------------'
7-7-7-7--9-9-9-9--12-12-12-12--7-7-7-7-'
5-5-5-5--7-7-7-7--10-10-10-10--5-5-5-5-'

---------------------------------------------'
---------------------------------------------'
---------------------------------------------'
---------------------------------------------'
{9-9-9-9-9-9-9-9--12-12-12-12-12-12-12-12}---'
{7-7-7-7-7-7-7-7--10-10-10-10-10-10-10-10}---'
pm........................................
(chorus)
---------------------------------------|
---------------------------------------|
---------------------------------------|
---------------------------------------|  (x4)
7-7-7-7--9-9-9-9--12-12-12-12--7-7-7-7-|
5-5-5-5--7-7-7-7--10-10-10-10--5-5-5-5-|

(verse)
----------------------------|
----------------------------|
----------------------------|  (x4)
----------------------------|
7-0-0--9-0-0--12-0-0--7-0-0-|
5-0-0--7-0-0--10-0-0--5-0-0-|

------------------------------------------'
------------------------------------------'
------------------------------------------'
------------------------------------------'
7-7-7-7--9-9-9-9--12-12-12-12-12-12-12-12-'
5-5-5-5--7-7-7-7--10-10-10-10-10-10-10-10-'

---------------------------------------'
---------------------------------------'
---------------------------------------'
---------------------------------------'
7-7-7-7--9-9-9-9--12-12-12-12--7-7-7-7-'
5-5-5-5--7-7-7-7--10-10-10-10--5-5-5-5-'

---------------------------------------------'
---------------------------------------------'
---------------------------------------------'
---------------------------------------------'
{9-9-9-9-9-9-9-9--12-12-12-12-12-12-12-12}---'
{7-7-7-7-7-7-7-7--10-10-10-10-10-10-10-10}---'
pm.......................................
(chorus)
---------------------------------------|
---------------------------------------|
---------------------------------------|
---------------------------------------|  (x4)
7-7-7-7--9-9-9-9--12-12-12-12--7-7-7-7-|
5-5-5-5--7-7-7-7--10-10-10-10--5-5-5-5-|

(intro solo)
---------------------------------------|
---------------------------------------|
---------------------------------------|
---------------------------------------|  (x2)
7-7-7-7--9-9-9-9--12-12-12-12--7-7-7-7-|
5-5-5-5--7-7-7-7--10-10-10-10--5-5-5-5-|

(solo)
------------------------------------------'
------------------------------------------'
------------------------------------------'
7-7-7-7--9-9-9-9--12-12-12-12-12-12-12-12-'
------------------------------------------'
------------------------------------------'

---------------------------------------'
---------------------------------------'
---------------------------------------'
7-7-7-7--9-9-9-9--12-12-12-12--7-7-7-7-'
---------------------------------------'
---------------------------------------'

-------------------'--------------------------------------------|
-------------------'--------------------------------------------|
15^17--17^19--19^21'{15-15}-15^17--{17-17}-17^19--{19-19}-19^21-|
-------------------' pm...----------pm...----------pm...--------|
-------------------'--------------------------------------------|
-------------------'--------------------------------------------|

(sung as chorus, played differently)
------------------------------------|
------------------------------------|
------------------------------------|
------------------------------------|
7............-----------------------|
5............-----------------------|
played out while second guitar plays...
this
«««
---------------------|...chorus is being sung w/ a soft guitar playing this
---------------------|
---------------------|
7-7--9-9--12-12--7-7-|  (x4)
---------------------|
---------------------|...than pick slide

(chorus)
---------------------------------------|
---------------------------------------|
---------------------------------------|
---------------------------------------|  (x4)
7-7-7-7--9-9-9-9--12-12-12-12--7-7-7-7-|
5-5-5-5--7-7-7-7--10-10-10-10--5-5-5-5-|

---------------------------------------|
---------------------------------------|
---------------------------------------|
---------------------------------------|  (x2)
7-7-7-7--9-9-9-9--12-12-12-12--7-7-7-7-|
5-5-5-5--7-7-7-7--10-10-10-10--5-5-5-5-|

'-----'
'-----'
'-----'
'-----'
'--7--'
'--5--'


and thts about it.the drum sumtimes faded out the last part of the verse, so, there 
be a miscount of notes near the end of the verse, sorry
Добавлено: 25.02.2012
Другие материалы по этой песне:
  • Аккорды и текст

Страница создана 25.02.2012
http://primanota.ru/time-again/cold-concrete-chords.htm
Привет, Гость.
Предлагаем пройти революционный курс по гитаре.
Подарок от PrimaNota.Ru, забирай!