PrimaNota.ru - самый крупный в мире бесплатный архив песенных текстов, аккордов, табулатур и нот


Timbuktu - Det Löser Sej - таба, видео

Регистрация Запомнить меня
Войти через:  Facebook Google Twitter Vk Yandex Mail.ru

Timbuktu - Det Löser Sej - таба, видео

Печатать
Просмотров: 27
-------------------------------------------------------------------------------
                           DET LÖSER SEJ - Timbuktu
-------------------------------------------------------------------------------
Tabbed by: fiskb33N
E-mail: tobias.green@hotmail.se

Tuning: Standard

Hej! Har försökt ta fram et tab till Det Löser Sej av Timbuktu. Vet inte om den
stämmer helt och hållet men det låter bra i mina öron. Hoppas det fungerar för er
med! Det är någon hammer-on och pull-off vid sista delen där på E då och då, 
orkade inte kolla det nu så det får ni lösa själva så länge.

Enjoy!

Capo 4

  Am                      F
e|---------------------------------------------|
B|-----1-----0h1p0-----------------------------|
G|-----2-----------2-------------2-------------|
D|-----2-------------2---------3---------------|
A|--0-----0------------------3-----------------|
E|------------------------1---------0-1-3-4----| 



************************************

| /   slide up
| \   slide down
| h   hammer-on
| p   pull-off
| ~   vibrato
| +   harmonic
| x   Mute note
| b   Bend
| pb  Pre-bend
| br  Bend release
| pbr Pre-bend release
| brb Bend release bend

************************************
Добавлено: 23.12.2015
Другие материалы по этой песне:
  • Аккорды и текст

Страница создана 23.12.2015
http://primanota.ru/timbuktu/det-loser-sej-chords.htm
Привет, Гость.
Предлагаем пройти революционный курс по гитаре.
Подарок от PrimaNota.Ru, забирай!