PrimaNota.ru - самый крупный в мире бесплатный архив песенных текстов, аккордов, табулатур и нот


Tim Timebomb - 8000 Miles Of Wire - таба, видео

Регистрация Запомнить меня
Войти через:  Facebook Google Twitter Vk Yandex Mail.ru

Tim Timebomb - 8000 Miles Of Wire - таба, видео

Печатать
Просмотров: 43
-------------------------------------------------------------------------------
                             8000 Miles Of Wire - Tim Timebomb
-------------------------------------------------------------------------------
Tabbed by: George Alan Szweden
E-mail: szweden.offic@gmail.com

Tuning:Standard

Intro/Verse

e|------------3------------------|
B|--1----1----0-----1------------|
G|--0----2----0-----0------------|
D|--2----3----0-----2------------|
A|--3----0----2-----3------------|
E|------------3------------------|

This is the whole song, there are two parts.
1 when just hit the chord once
1 when keep playing a chord

Добавлено: 12.11.2015
Вам также может быть интересно:
Другие материалы по этой песне:
  • Аккорды и текст

Страница создана 12.11.2015
http://primanota.ru/tim-timebomb/8000-miles-of-wire-chords.htm
Привет, Гость.
Предлагаем пройти революционный курс по гитаре.
Подарок от PrimaNota.Ru, забирай!