PrimaNota.ru - самый крупный в мире бесплатный архив песенных текстов, аккордов, табулатур и нот


Tim Sparks - Toy Soldiers - таба, видео

Регистрация Запомнить меня
Войти через:  Facebook Google Twitter Vk Yandex Mail.ru

Tim Sparks - Toy Soldiers - таба, видео

Печатать
Просмотров: 57
March of the Toy Soldiers
by Tschajkowski
Arranged by Tim Sparks
>From The Nutcracker CD by Tim Sparks
Standard tuning


Some assembly required.


           - 3 -
|----------------------------------|--7-------------------------------|
|--8------8--8--8--10------10------|--8-------8-------10--------------|
|--9------9--9--9--9-------9-------|--9-------9-------9---------------|
|--10-----10-10-10-10------10------|----------10------10--------------|
|------------------0-------0-------|--7---------------0---------------|
|--8-------------------------------|----------8-----------------------|
   1   .   2   .   3   .   4   .   |  1   .   2   .   3   .   4   .   |



           - 3 -
|----------------------------------|--7-------------------------------|
|--8------8--8--8--10------10------|--8-------8-------10--------------|
|--9------9--9--9--9-------9-------|--9-------9-------9---------------|
|--10-----10-10-10-10------10------|----------10------10------------7-|
|------------------0-------0-------|--7---------------0---------------|
|--8-------------------------------|----------8-----------------------|
   1   .   2   .   3   .   4   .   |  1   .   2   .   3   .   4   .   |


| First ending...
|----------------------------------|----------------------------------|
|--6----8--6-----------------------|--5-----6-5-------------0-------1-|
|---------------9--7-------------0-|--5-------------7-5-------2-------|
|----------8------------10-9-------|----------6-------7-------3-------|
|------------------9-------8-------|----------------------------------|
|----------------------------------|----------------------------------|
   1   .   2   .   3   .   4   .   |  1   .   2   .   3   .   4   .   |



|--------------------------------0-|--1-----0---------3--------------||
|--0-------------3-1-----0---------|--3-------3-----1-3--------------||
|--------2-1-------2-------2-------|--2---------------0-------------*||
|--1-------2-------3-------4-------|--0-----------------------------*||
|----------------------------------|----------3-------2--------------||
|----------------------------------|--------------------------3-/----||
   1   .   2   .   3   .   4   .   |  1   .   2   .   3   .   4   .  ||



| Second ending...
|----------------0-----------------|--3----5--3----1--0-------------0-|
|--6----8--6-------3-------0----3--|--1-------0-------------3-2-------|
|-----------------------5----------|------------------2-------0-------|
|----------8-------4-------3-------|--2-------0-----------------------|
|----------------------------------|------------------4-------0-------|
|----------------------------------|----------------------------------|
   1   .   2   .   3   .   4   .   |  1   .   2   .   3   .   4   .   |


|--5-----3------5--7-----5-------7-|--8----7-------8--12--------------|
|--3-------6-------6-------8-------|--10------10------9---------------|
|--5-------7-------7-------7-------|--9-------8-------9---------------|
|--3-------7-------5---------------|--7---------------9---------------|
|----------5---------------8-------|----------10----------------------|
|----------------------------------|------------------------- 12>-----|
   1   .   2   .   3   .   4   .   |  1   .   2   .   3   .   4   .   |


           -  3  -

|--12-----12-12-12-8-------5-------|--1---------------0----10h12------|
|--9------9--9--9--10------3-------|--3-------3-------0---------------|
|--9------9--9--9--9-------5-------|--2-------2-------1---------------|
|--9------9--9--9--7-------3-------|--0-------3-------0---------------|
|----------------------------------|----------2-----------7---9---10--|
|----------------------------------|----------------------------------|
   1   .   2   .   3   .   4   .   |  1   .   2   .   3   .   4   .   |


|7h8------4h5----0h1---------------|0h1-----4h5-----6h7-------4-------|
|------------------------2h3-------|--------------------------3-------|
|----------------------------------|--------------------------4-------|
|------------------0---2---3---2---|--0---------------6---4---2-------|
|--0-------3---4-------------------|------3---2---0-------------------|
|------7---------------------------|----------------------------------|
   1   .   2   .   3   .   4   .   |  1   .   2   .   3   .   4   .   |


           -  3  -

|--12-----12-12-12-8-------5-------|--1---------------0--12---11--10--|
|--9------9--9--9--10------3-------|--3-------3-------0-------9-------|
|--9------9--9--9--9-------5-------|--2-------2-------7-------9-------|
|--9------9--9--9--7-------3-------|--0-------3-------6-------9-------|
|----------------------------------|----------2-----------------------|
|----------------------------------|----------------------------------|
   1   .   2   .   3   .   4   .   |  1   .   2   .   3   .   4   .   |


|--8---7---------------0-------5---|--7---5---3---1---0---------------|
|----------10---8--6-------3-------|--6-------0-----------3---1---0---|
|----------------------------------|--0-----------------------2-------|
|------------------0-------4-------|--0-----------------------0-------|
|--0-------------------------------|----------------------------------|
|----------8-----------------------|----------------------------------|
   1   .   2   .   3   .   4   .   |  1   .   2   .   3   .   4   .   |



|--8----7--5-----7-8--------------||--8-8-8-8-7-5-----0-0-0-0-0---0---|
|--5-------6-------5-------1------||--5-------6---8-6---------2-6---6-|
|--5-------7-------5-------0------||*-----------------7---------------|
|--5-------5-------5-------2------||*---------------------------------|
|--------------------------3------||--0---------------0---------------|
|---------------------------------||----------------------------------|
   1   .   2   .   3   .   4   .   |  1   .   2   .   3   .   4   .   |




|----0---0---0---0-----------------|----------------------------------|
|--3---3---3---3---1-3-0-1-------0-|--1-1-1-1-0-----------------------|
|--5-------4---------------2---2---|------------2-0-------------------|
|----------------------------2-----|----------3-----3-2-2-2-2-2-3-2-3-|
|------------------0-------0-------|--0---------------3-------4-------|
|----------------------0-----------|----------------------------------|
   1   .   2   .   3   .   4   .   |  1   .   2   .   3   .   4   .   |



|  First ending
|
|--2-------1------------------------||
|--3-------3------------------------||
|----------------------------------*||
|----0-0-0-0-2-0-2---0-------------*||
|------------------3---2-3-0-2-3----||
|--------------------------------0--||
   1   .   2   .   3   .   4   .    ||



|   Second ending                    Go to start...
|
|--2-------1-----------------------|----------------------------------|
|--3-------3-----------------------|----------------------------------|
|----------------------------------|----------------------------------|
|----0-0-0-0-2-0-2---0-------------|----------------------------------|
|------------------3---2-3-0-------|----------------------------------|
|------------------------------3---|----------------------------------|
   1   .   2   .   3   .   4   .   |  1   .   2   .   3   .   4   .   |



end.
     
Добавлено: 20.07.2013
Вам также может быть интересно:
Другие материалы по этой песне:
  • Аккорды и текст

Страница создана 20.07.2013
http://primanota.ru/tim-sparks/toy-soldiers-chords.htm
Привет, Гость.
Предлагаем пройти революционный курс по гитаре.
Подарок от PrimaNota.Ru, забирай!