PrimaNota.ru - самый крупный в мире бесплатный архив песенных текстов, аккордов, табулатур и нот


Tim Sparks - One String Leads To Another - таба, видео

Регистрация Запомнить меня
Войти через:  Facebook Google Twitter Vk Yandex Mail.ru

Tim Sparks - One String Leads To Another - таба, видео

Печатать
Просмотров: 53
One String Leads to Another
by Tim Sparks
from the CD One String Leads to Another
Standard down one octave, capo 2

/ = slide up
\ = slide down
b = bend
h = hammer on
p = pull off

This should be pretty close. Some positions may be wrong. There are a
lot of string bends in this tune.


|--7---p---0-------0---------------|-----------0-------------------0--|
|------9---------------0-----------|-----------0---------------0------|
|--------------11------------------|----------------------------------|
|--------------------------7-b-8---|-b-7-------------------6----------|
|----------------------------------|---5------------------------------|
|--0-------------------------------|-------------------0--------------|
   1   .   2   .   3   .   4   .   |   1   .   2   .   3   .   4   .  |

|--4---p---0-------0---------------|-----------0-------------------0--|
|------7---------------0-----------|-----------0---------------0------|
|--------------0-------------------|----------------------------------|
|--------------------------6-b-7---|-b-6-------------------6----------|
|--0-------------------------------|---4------------------------------|
|----------------------------------|-------------------0--------------|
   1   .   2   .   3   .   4   .   |   1   .   2   .   3   .   4   .  |

|--4---p---0-------0---------------|-----------0----------------------|
|------7---------------0-----------|-----------0-------------------0--|
|--------------0-------------------|----------------------------------|
|--------------------------4-b-5---|-b-4------------------------------|
|--0-------------------------------|---2---------------2-h-4-/-7------|
|----------------------------------|----------------------------------|
   1   .   2   .   3   .   4   .   |   1   .   2   .   3   .   4   .  |

                                   | First ending...
|------------------0---------------|----------------------------------|
|--------------0-------0-----------|-------0-------0-------0---7-/-9--|
|----------------------------------|-------------------6-------------*|
|----------2-----------------------|---2-------7---------------------*|
|--0-----------------------2-/-4---|----------------------------------|
|----------------------------------|----------------------------------|
   1   .   2   .   3   .   4   .   |   1   .   2   .   3   .   4   .  |

|Second ending...
|----------0-----------------------|---------------0-----------0------|
|----------0-----------------------|-----------0-------7-b8-7---------|
|----------------------------------|----------------------------------|
|--2---------------6-\-4---2-------|-/-6------------------------------|
|----------------------------------|----------------------------------|
|----------------------------------|---0------------------------------|
   1   .   2   .   3   .   4   .   |   1   .   2   .   3   .   4   .  |

|--2-----------------------7-------|-------0---------------0----------|
|------------------0----------7b8--|-----------7-------0--------------|
|--------------3-------------------|---------------7------------------|
|----------4-----------------------|---------------------------6b7-b--|
|--4-------------------------------|----------------------------------|
|----------------------------------|---0------------------------------|
   1   .   2   .   3   .   4   .   |   1   .   2   .   3   .   4   .  |

|----------0---------------4-------|------0----------------0----------|
|-----------------------------7b8--|-----------4-------0--------------|
|----------------------------------|---------------6------------------|
|b-6-------------------------------|---------------------------4-b-5-b|
|--4-------------------------------|---0------------------------------|
|------------------0---------------|----------------------------------|
   1   .   2   .   3   .   4   .   |   1   .   2   .   3   .   4   .  |

|----------0-----------------------|-------------------0--------------|
|----------0-------------------0---|---------------0-------0----------|
|----------------------------------|----------------------------------|
|--4-------------------------------|-----------2----------------------|
|--2---------------2-h-4-/-7-------|---0-----------------------2-/-4--|
|----------------------------------|----------------------------------|
   1   .   2   .   3   .   4   .   |   1   .   2   .   3   .   4   .  |

|----------0-----------------------|---------------0-----------0------|
|----------0-----------------------|-----------0-------7-b8-7---------|
|----------------------------------|----------------------------------|
|--2---------------6-\-4---2-------|-/-6------------------------------|
|----------------------------------|----------------------------------|
|----------------------------------|---0------------------------------|
   1   .   2   .   3   .   4   .   |   1   .   2   .   3   .   4   .  |

|--2-----------------------12------|-------12--------0-9-p-0-------0--|
|------------------0----------13b--|---14------13b14------------------|
|--------------3-------------------|---------------------------11-----|
|----------4-----------------------|----------------------------------|
|--4-------------------------------|---0------------------------------|
|----------------------------------|----------------------------------|
   1   .   2   .   3   .   4   .   |   1   .   2   .   3   .   4   .  |

|--------------------------5-------|-------0---------------0----------|
|--0---------------------------7b8-|-----------4-------0--------------|
|--11/13---------------------------|---------------6------------------|
|----------------------------------|---------------------------4-b-5--|
|----------------------------------|---0------------------------------|
|------------------0---------------|----------------------------------|
   1   .   2   .   3   .   4   .   |   1   .   2   .   3   .   4   .  |

|----------0-----------------------|-----------0-------------------0--|
|----------0-------------------0---|-----------0---------------0------|
|----------------------------------|-----------------------2----------|
|b-4-------------------------------|-------------------6--------------|
|--2---------------2-h-4-/-7-------|----------------------------------|
|----------------------------------|---0------------------------------|
   1   .   2   .   3   .   4   .   |   1   .   2   .   3   .   4   .  |

|--0------------------------------||---------------0-----------0------|
|--4-b-5--b----4-p-2---p---0------||-----------0----------------------|
|---------------------------------||----------------------------------|
|---------------------------------||---6--b----7---b---6--------------|
|---------------------------------||---4------------------------------|
|--0------------------------------||----------------------------------|
   1   .   2   .   3   .   4   .  ||   1   .   2   .   3   .   4   .  |

||--------------0-----------0------|-----------0----------------------|
||----------0----------------------|------------------12b14b12-10-----|
||*--------------------------------|----------------------------------|
||*-4---------------4-/-6----------|--/6------------------------------|
||---------------------------------|---0------------------------------|
||--4------------------------------|----------------------------------|
   1   .   2   .   3   .   4   .   |   1   .   2   .   3   .   4   .  |

|--------------0-----------0-------|---------------------------0---7--|
|----------0-----------------------|---4b5b4-p-2-2-0------------------|
|--13/14-----------13\11-----------|-------------------4-/-6----------|
|----------------------------------|----------------------------------|
|----------------------------------|---0------------------------------|
|--0-------------------------------|----------------------------------|
   1   .   2   .   3   .   4   .   |   1   .   2   .   3   .   4   .  |

|----------0---------------0-------|-----------0----------------------|
|--7b8b7------2--------0-------0---|---------------4-\-2---0----------|
|------------------4---------------|---------------------------2---0--|
|----------------------------------|---4-/-6--------------------------|
|----------------------------------|----------------------------------|
|--0-------------------------------|---0------------------------------|
   1   .   2   .   3   .   4   .   |   1   .   2   .   3   .   4   .  |

|----------------------------------|---0---------------8--------------|
|------------------------------4---|---------------------------8-b10--|
|------0-------0---2---4-/-5-------|----------------------------------|
|----------4-----------------------|-----------0----------------------|
|--2-------------------------------|----------------------------------|
|----------------------------------|---8------------------------------|
   1   .   2   .   3   .   4   .   |   1   .   2   .   3   .   4   .  |

|----------------------------------|---7-----------3---5-------0------|
|-b8-------------------8-------0---|-----------3-----------0-------3--|
|------------------7---------------|-------4--------------------------|
|--------------9-----------9-------|---3------------------------------|
|----------7-----------------------|----------------------------------|
|--0-------------------------------|----------------------------------|
   1   .   2   .   3   .   4   .   |   1   .   2   .   3   .   4   .  |

|--0---------------0---------------|-----------0-------------------0--|
|----------1-p-0-------3-p-1-p-0---|-----------0----------------------|
|------2---------------------------|-------------------1-/-4---6------|
|----------------------------------|----------------------------------|
|--0-------------------------------|----------------------------------|
|----------------------------------|---4------------------------------|
   1   .   2   .   3   .   4   .   |   1   .   2   .   3   .   4   .  |

|--------------0---4-p-2-p-0---2---|-------------------0--------------|
|----------4-----------------------|---------------0-----------0------|
|--5-/-6---------------------------|-----------3----------------------|
|----------------------------------|----------------------------------|
|----------------------------------|----------------------------------|
|----------------------------------|---2---------------4--------------|
   1   .   2   .   3   .   4   .   |   1   .   2   .   3   .   4   .  |

|--------------0-------------------|---------------0------------------|
|----------0-------4-p-2-p-0-------|-----------0-------9-b10-b-9------|
|------2-----------------------2---|----------------------------------|
|----------------------------------|---4-/-6--------------------------|
|--0-------------------------------|----------------------------------|
|----------------------------------|----------------------------------|
   1   .   2   .   3   .   4   .   |   1   .   2   .   3   .   4   .  |

|--------------------------5-------|-------0---------------0----------|
|--0-----------0---------------8b9-|--b8-------4-------0--------------|
|--13------0-----------------------|---------------6------------------|
|----------------------------------|---------------------------6-b-7-b|
|----------------------------------|---0------------------------------|
|----------------------------------|----------------------------------|
   1   .   2   .   3   .   4   .   |   1   .   2   .   3   .   4   .  |

|--------------------------0-------|------0----------------0----------|
|----------------------0-------7b8-|--b7-------4-------0--------------|
|----------------------------------|---------------6------------------|
|b-6-------------------------------|---------------------------4-b-5-b|
|--4-------------------------------|---0------------------------------|
|----------0---2---4---------------|----------------------------------|
   1   .   2   .   3   .   4   .   |   1   .   2   .   3   .   4   .  |

|First ending...
|----------0-----------------------|-----------0-------------------0--|
|----------0-------------------0---|-----------0---------------0------|
|----------------------------------|-----------------------2----------|
|-b4-------------------------------|-------------------6--------------|
|--2---------------2-h-4-/-7-------|----------------------------------|
|----------------------------------|---0------------------------------|
   1   .   2   .   3   .   4   .   |   1   .   2   .   3   .   4   .  |

|--0-------------------------------|---------------0-----------0-----||
|--4b-5---b----4-p-2---p---0-------|-----------0---------------------||
|----------------------------------|--------------------------------*||
|----------------------------------|---6---------------6------------*||
|----------------------------------|---4-----------------------------||
|--0-------------------------------|---------------------------------||
   1   .   2   .   3   .   4   .   |   1   .   2   .   3   .   4   . ||

|Second ending...
|----------------------------------|---------------0------------------|
|----------------------------------|-----------0----------------------|
|----------------------------------|----------------------------------|
|-b4-----------------------2-h-4-/-|---6---------------6-b-7-b-6---4--|
|--2---------------3---------------|---4------------------------------|
|----------------------------------|----------------------------------|
   1   .   2   .   3   .   4   .   |   1   .   2   .   3   .   4   .  |

|--0-------------------------------|-------------------------------0--|
|----------------------------------|---------------------------0------|
|--2-------------------------------|---b4-----------------------------|
|--2-------------------------------|----------------------------------|
|--4-------------------------------|----------------------------------|
|--2-------------------------------|----------------------------------|
   1   .   2   .   3   .   4   .   |   1   .   2   .   3   .   4   .  |

|------------------0-------4---5---|---7---5-p-4-p-0-----------0------|
|----------0-----------7-----------|-------------------4-----------4--|
|--6-----------6-------------------|-----------------------6----------|
|------7---------------------------|----------------------------------|
|--0-------------------------------|----------------------------------|
|----------------------------------|----------------------------------|
   1   .   2   .   3   .   4   .   |   1   .   2   .   3   .   4   .  |

|----------------------------------|----------------------------------|
|------0---0-------0---0---0-------|----------------------------------|
|--6-------6-b-7---4---2---4---6b7-|--b6------------------------------|
|----------------------------------|---------------------------2-h-4--|
|----------------------------------|----------------------------------|
|----------------------------------|----------------------------------|
   1   .   2   .   3   .   4   .   |   1   .   2   .   3   .   4   .  |

|--------------0-------------------|---------------0------------------|
|----------0---------------0-------|-----------0----------------------|
|----------------------------------|----------------------------------|
|--6-------------------6-------\---|-------4--------------------------|
|--4-------------------------------|---2---------------4-p-2----------|
|------------------4---------------|---------------------------3-p-4--|
   1   .   2   .   3   .   4   .   |   1   .   2   .   3   .   4   .  |

|------7---4-p-0---2-p-0-----------|-----------0-------------------0--|
|----------------------------------|-----------0---------------0------|
|----------------------------------|----------------------------------|
|--------------------------7-b-8---|-b-7-------------------6----------|
|----------------------------------|---5------------------------------|
|--0-------------------------------|-------------------0--------------|
   1   .   2   .   3   .   4   .   |   1   .   2   .   3   .   4   .  |


|--4---p---0-------0---------------|-----------0-------------------0--|
|------7---------------0-----------|-----------0---------------0------|
|--------------0-------------------|----------------------------------|
|--------------------------6-b-7---|-b-6-------------------6----------|
|--0-------------------------------|---4------------------------------|
|----------------------------------|-------------------0--------------|
   1   .   2   .   3   .   4   .   |   1   .   2   .   3   .   4   .  |

|--4---p---0-------0---------------|-----------0----------------------|
|------7---------------0-----------|-----------0-------------------0--|
|--------------0-------------------|----------------------------------|
|--------------------------4-b-5---|-b-4------------------------------|
|--0-------------------------------|---2---------------2-h-4-/-7------|
|----------------------------------|----------------------------------|
   1   .   2   .   3   .   4   .   |   1   .   2   .   3   .   4   .  |

|----------0-------------------0---|------------------4b5b4-0---------|
|----------0---------------0-------|--4b5b-4---2---0-----------4---0--|
|------------------1-h-2-----------|----------------------------------|
|----------------------------------|----------------------------------|
|----------------------------------|----------------------------------|
|--0-------------------------------|---0------------------------------|
   1   .   2   .   3   .   4   .   |   1   .   2   .   3   .   4   .  |

|----------------------------------|---------------------------0---7--|
|----------------------------------|-----------------------0----------|
|----------------------------------|----------------------------------|
|--6------b----7-b-6---------------|----------------------------------|
|----------------------------------|----------------------------------|
|--0-------------------------------|-------------------0--------------|
   1   .   2   .   3   .   4   .   |   1   .   2   .   3   .   4   .  |

|--0-------------------------------|
|--7--b--9-------------------------|
|----------------------------------|
|----------------------------------|
|----------------------------------|
|--0-------------------------------|
   1   .   2   .   3   .   4   .   |

end.

     
Добавлено: 19.08.2013
Вам также может быть интересно:
Другие материалы по этой песне:
  • Аккорды и текст

Страница создана 19.08.2013
http://primanota.ru/tim-sparks/one-string-leads-to-another-chords.htm
Привет, Гость.
Предлагаем пройти революционный курс по гитаре.
Подарок от PrimaNota.Ru, забирай!