PrimaNota.ru - самый крупный в мире бесплатный архив песенных текстов, аккордов, табулатур и нот


Tim Mcgraw - One Of Those Nights - аккорды и текст, таба, видео

Регистрация Запомнить меня
Войти через:  Facebook Google Twitter Vk Yandex Mail.ru

Tim Mcgraw - One Of Those Nights - аккорды и текст, таба, видео

Печатать
Просмотров: 98
One Of Those Nights
Tim Mcgraw
Intro Tab

e-------------10----10----------7-7---5-7-5-----7-7---5-7-5----------
B-----------------------------------8-------8-8-----8-------8---5-8--
G-13-12-------------------13-12-------------------------------7------
D-------12-12----12----12--------------------------------------------
A--------------------------------------------------------------------
E--------------------------------------------------------------------

e-7-7---5-7-5-----7-7------------------------------------------------
B-----8-------8-8----------------------------------------------------
G---------------------7----------------------------------------------
D-----------------------9-7h9p7----7-9-7-----------------------------
A-------------------------------10-------10--------------------------
E--------------------------------------------------------------------



G
She's getting dressed up, putting on that lipstick
C
Shimmy shaking, right into them cut-offs baby, oh yeah
G
You're getting off work, cashing out that paycheck
C
Gotta change that shirt and pick that girl up on her front step
D
Here she comes now looking so fine
D            C                                D
You've been waiting on this night for such a long, long time


G
She slides in and you roll down Main Street,
C
You turn right when that red light turns green
G
Sun sets now, you're half way to heaven
C
She picks a song, you turn it up to eleven
         G
You say "Do you wanna?" and she says "Hell yeah"
C
So you hit the party, all your buddies are jealous
G
Someday you'll be looking back on your life
        C                                       G
At the memories, this is gonna be one of those nights


e-7-7---5-7-5-----7-7-----5-7-5--------------------------------------
B-----8-------8-8-----8-8-------8---5-8------------------------------
G---------------------------------7----------------------------------
D--------------------------------------------------------------------
A--------------------------------------------------------------------
E--------------------------------------------------------------------


G
Crowded backyard, everybody's laughing
C
Kinda party, next week you'll say I was there when it happened
G
Coming up on midnight, bout time to get gone
C
And then the DJ starts to play your favorite song
D                                            C                 D
You slow dance for three minutes or so, and then she whispers baby let's go


G
And then she slides in and she gives you the green light
C
You hold off till you turn on the headlights
G
Someday when you're looking back on your life
        C                                       G
At the memories, this is gonna be one of those nights
G                  C
Yeah one of those nights


e-7-7---5-7-5-----7-7-----5-7-5--------------------------------------
B-----8-------8-8-----8-8-------8---5-8------------------------------
G---------------------------------7----------------------------------
D--------------------------------------------------------------------
A--------------------------------------------------------------------
E--------------------------------------------------------------------


G
Full moon through a crack in the windshield
C                                                   G
You hold her close and you'll never forget how her heartbeat feels
        C
No you never will
G
'Cause someday when you're looking back on your life
        C                                       G
At the memories, this is gonna be one of those nights
                   C
Yeah one of those nights
              G
One of those nights
                   C
Yeah one of those nights
             G        C
One of those nights, oh
              G
One of those nights
              C
This is gonna be, hey
              G
This is gonna be
              C
One of those nights
G  C  G  C  G
Oh oh
Добавлено: 09.04.2016
Другие материалы по этой песне:
  • Аккорды и текст

Страница создана 08.08.2013
http://primanota.ru/tim-mcgraw/one-of-those-nights-chords.htm
Привет, Гость.
Предлагаем пройти революционный курс по гитаре.
Подарок от PrimaNota.Ru, забирай!