PrimaNota.ru - самый крупный в мире бесплатный архив песенных текстов, аккордов, табулатур и нот


Tim Kasher - 2 Am - таба, видео

Регистрация Запомнить меня
Войти через:  Facebook Google Twitter Vk Yandex Mail.ru

Tim Kasher - 2 Am - таба, видео

Печатать
Просмотров: 121
ok so this is my first tab and i think it sounds
alright but i know not exact so for anny corrections
e mail me at letingoffhapynes@aim.com

standered tunning no capo

2 A M

    By Tim Kasher


intro/vers:

e|-0---0---0-----------3-------1-------|
B|-1---1---1-----------0-------1-------|
G|-2---2---0-----------0-------2-------|
D|-x---0---2-0h-2p-0---0-------3-------|
A|-3---x---3---------2-2-------x-------|
E|-x---2---x-----------3-3-0-1-x-------|

(for when he says "I've got no one to talk to" the second time
just strum chord # 3 once then chord #4 once and then go back to
repeatingly strumming chord #5 ull see if u listen)


chores:
   F  G  Em C
e|-1--3--0--0----------------|then when he says"Well I guess I just called to say hi"
B|-1--0--0--1----------------|           strum the F once and the G once then go into the
G|-2--0--0--0----------------|      intro/vers
D|-3--0--2--2----------------|
A|-x--2--2--3----------------|
E|-x--3--x--x----------------|

then the chores which is the same as the last chores

then end on e|--|
B|--------------|
G|--------------|
D|--------------|
A|---2----------|
E|--------------|

http://profile.myspace.com/index.cfm?fuseaction=user.viewprofile&friendID=75070151
Добавлено: 28.04.2012
Другие материалы по этой песне:
  • Аккорды и текст

Страница создана 28.04.2012
http://primanota.ru/tim-kasher/2-am-chords.htm
Привет, Гость.
Предлагаем пройти революционный курс по гитаре.
Подарок от PrimaNota.Ru, забирай!