PrimaNota.ru - самый крупный в мире бесплатный архив песенных текстов, аккордов, табулатур и нот


Tim Curry - Im Going Home - таба, видео

Регистрация Запомнить меня
Войти через:  Facebook Google Twitter Vk Yandex Mail.ru

Tim Curry - Im Going Home - таба, видео

Печатать
Просмотров: 85
Авторы музыки: Richard O'Brien
Авторы текста: Richard O'Brien
-------------------------------------------------------------------------
 I'm Going Home - Tim Curry/Rocky Horror Picture Show
-------------------------------------------------------------------------
Tabbed by: ShawnV
E-mail: Shawn.Varney@yahoo.com
Honestly this is my first time tabbing a song so please do post corrections if I got anything wrong.

Tuning:
   F   G   B#  F
e|-1---3---6---1--| Just listen to the song and come up with your own strumming pattern,it's fairly simple.
B|-1---3---6---1--|
G|-2---3---7---2--|
D|-3---5---8---3--|
A|-3---5---8---3--|
E|-1---3---6---1--|

Pre-Chorus
e|-1---3------8-------------------
B|-1---3------8--------------------
G|-2---3------9-------------------
D|-3---5------10------------------
A|-3---5------10------------------
E|-1---3------8-------------------
Strum the G for twice as long
Chorus Rhythm
e|-6----------------------------8-------------------------6-------6-----1------------|
B|-6----------------------------8-------------------------6-------6-----1------------|
G|-7----------------------------9-------------------------7-------7-----2------------|
D|-8----------------------------10------------------------8-------8-7-5-3------------|
A|-8----------------------------10------------------------8-------8-7-5-3------------|
E|-6----------------------------8-------------------------6-------6-5-3-1------------|

Chorus Lead
e|---------------------------------------------------------------------------|
B|-13b^---------13b^-13b^-13b^-18b^------------------------------------------|
G|---------------------------------------------------------------------------|
D|---------------------------------------------------------------------------|
A|---------------------------------------------------------------------------|
E|---------------------------------------------------------------------------|

Verse
Pre Chorus
Chorus

Outro
   F   G   B#  F
e|-1---3---6---1--| 
B|-1---3---6---1--|
G|-2---3---7---2--|
D|-3---5---8---3--|
A|-3---5---8---3--|
E|-1---3---6---1--|



************************************

| /   slide up
| \   slide down
| h   hammer-on
| p   pull-off
| ~   vibrato
| +   harmonic
| x   Mute note
| b   Bend
| b^  Bend wholes step
| pb  Pre-bend
| br  Bend release
| pbr Pre-bend release
| brb Bend release bend

************************************
Добавлено: 03.06.2016
Другие материалы по этой песне:
  • Аккорды и текст

Страница создана 03.06.2016
http://primanota.ru/tim-curry/im-going-home-chords.htm
Привет, Гость.
Предлагаем пройти революционный курс по гитаре.
Подарок от PrimaNota.Ru, забирай!